  0
SECTION
  2
HEADER
  9
$ACADVER
  1
AC1015
  9
$ACADMAINTVER
 70
    18
  9
$DWGCODEPAGE
  3
ANSI_1252
  9
$INSBASE
 10
0.0
 20
0.0
 30
0.0
  9
$EXTMIN
 10
-72.11059480918402
 20
-67.2392114229026
 30
-0.0015258207003583
  9
$EXTMAX
 10
72.08496151036229
 20
77.03256269129053
 30
0.0000000349246037
  9
$LIMMIN
 10
0.0
 20
0.0
  9
$LIMMAX
 10
420.0
 20
297.0
  9
$ORTHOMODE
 70
     0
  9
$REGENMODE
 70
     1
  9
$FILLMODE
 70
     1
  9
$QTEXTMODE
 70
     0
  9
$MIRRTEXT
 70
     0
  9
$LTSCALE
 40
1.0
  9
$ATTMODE
 70
     1
  9
$TEXTSIZE
 40
2.5
  9
$TRACEWID
 40
1.0
  9
$TEXTSTYLE
  7
Standard
  9
$CLAYER
  8
0
  9
$CELTYPE
  6
ByLayer
  9
$CECOLOR
 62
   256
  9
$CELTSCALE
 40
1.0
  9
$DISPSILH
 70
     0
  9
$DIMSCALE
 40
1.0
  9
$DIMASZ
 40
2.5
  9
$DIMEXO
 40
0.625
  9
$DIMDLI
 40
3.75
  9
$DIMRND
 40
0.0
  9
$DIMDLE
 40
0.0
  9
$DIMEXE
 40
1.25
  9
$DIMTP
 40
0.0
  9
$DIMTM
 40
0.0
  9
$DIMTXT
 40
2.5
  9
$DIMCEN
 40
2.5
  9
$DIMTSZ
 40
0.0
  9
$DIMTOL
 70
     0
  9
$DIMLIM
 70
     0
  9
$DIMTIH
 70
     0
  9
$DIMTOH
 70
     0
  9
$DIMSE1
 70
     0
  9
$DIMSE2
 70
     0
  9
$DIMTAD
 70
     1
  9
$DIMZIN
 70
     8
  9
$DIMBLK
  1

  9
$DIMASO
 70
     1
  9
$DIMSHO
 70
     1
  9
$DIMPOST
  1

  9
$DIMAPOST
  1

  9
$DIMALT
 70
     0
  9
$DIMALTD
 70
     3
  9
$DIMALTF
 40
0.03937007874016
  9
$DIMLFAC
 40
1.0
  9
$DIMTOFL
 70
     1
  9
$DIMTVP
 40
0.0
  9
$DIMTIX
 70
     0
  9
$DIMSOXD
 70
     0
  9
$DIMSAH
 70
     0
  9
$DIMBLK1
  1

  9
$DIMBLK2
  1

  9
$DIMSTYLE
  2
ISO-25
  9
$DIMCLRD
 70
     0
  9
$DIMCLRE
 70
     0
  9
$DIMCLRT
 70
     0
  9
$DIMTFAC
 40
1.0
  9
$DIMGAP
 40
0.625
  9
$DIMJUST
 70
     0
  9
$DIMSD1
 70
     0
  9
$DIMSD2
 70
     0
  9
$DIMTOLJ
 70
     0
  9
$DIMTZIN
 70
     8
  9
$DIMALTZ
 70
     0
  9
$DIMALTTZ
 70
     0
  9
$DIMUPT
 70
     0
  9
$DIMDEC
 70
     2
  9
$DIMTDEC
 70
     2
  9
$DIMALTU
 70
     2
  9
$DIMALTTD
 70
     3
  9
$DIMTXSTY
  7
Standard
  9
$DIMAUNIT
 70
     0
  9
$DIMADEC
 70
     0
  9
$DIMALTRND
 40
0.0
  9
$DIMAZIN
 70
     0
  9
$DIMDSEP
 70
    44
  9
$DIMATFIT
 70
     3
  9
$DIMFRAC
 70
     0
  9
$DIMLDRBLK
  1

  9
$DIMLUNIT
 70
     2
  9
$DIMLWD
 70
    -2
  9
$DIMLWE
 70
    -2
  9
$DIMTMOVE
 70
     0
  9
$LUNITS
 70
     2
  9
$LUPREC
 70
     4
  9
$SKETCHINC
 40
1.0
  9
$FILLETRAD
 40
0.0
  9
$AUNITS
 70
     0
  9
$AUPREC
 70
     0
  9
$MENU
  1
.
  9
$ELEVATION
 40
0.0
  9
$PELEVATION
 40
0.0
  9
$THICKNESS
 40
0.0
  9
$LIMCHECK
 70
     0
  9
$CHAMFERA
 40
0.0
  9
$CHAMFERB
 40
0.0
  9
$CHAMFERC
 40
0.0
  9
$CHAMFERD
 40
0.0
  9
$SKPOLY
 70
     0
  9
$TDCREATE
 40
2460312.625706019
  9
$TDUCREATE
 40
2460312.334039352
  9
$TDUPDATE
 40
2460312.634398148
  9
$TDUUPDATE
 40
2460312.342731481
  9
$TDINDWG
 40
0.0082638889
  9
$TDUSRTIMER
 40
0.0082638889
  9
$USRTIMER
 70
     1
  9
$ANGBASE
 50
0.0
  9
$ANGDIR
 70
     0
  9
$PDMODE
 70
     0
  9
$PDSIZE
 40
0.0
  9
$PLINEWID
 40
0.0
  9
$SPLFRAME
 70
     0
  9
$SPLINETYPE
 70
     6
  9
$SPLINESEGS
 70
     8
  9
$HANDSEED
  5
232F
  9
$SURFTAB1
 70
     6
  9
$SURFTAB2
 70
     6
  9
$SURFTYPE
 70
     6
  9
$SURFU
 70
     6
  9
$SURFV
 70
     6
  9
$UCSBASE
  2

  9
$UCSNAME
  2

  9
$UCSORG
 10
0.0
 20
0.0
 30
0.0
  9
$UCSXDIR
 10
1.0
 20
0.0
 30
0.0
  9
$UCSYDIR
 10
0.0
 20
1.0
 30
0.0
  9
$UCSORTHOREF
  2

  9
$UCSORTHOVIEW
 70
     0
  9
$UCSORGTOP
 10
0.0
 20
0.0
 30
0.0
  9
$UCSORGBOTTOM
 10
0.0
 20
0.0
 30
0.0
  9
$UCSORGLEFT
 10
0.0
 20
0.0
 30
0.0
  9
$UCSORGRIGHT
 10
0.0
 20
0.0
 30
0.0
  9
$UCSORGFRONT
 10
0.0
 20
0.0
 30
0.0
  9
$UCSORGBACK
 10
0.0
 20
0.0
 30
0.0
  9
$PUCSBASE
  2

  9
$PUCSNAME
  2

  9
$PUCSORG
 10
0.0
 20
0.0
 30
0.0
  9
$PUCSXDIR
 10
1.0
 20
0.0
 30
0.0
  9
$PUCSYDIR
 10
0.0
 20
1.0
 30
0.0
  9
$PUCSORTHOREF
  2

  9
$PUCSORTHOVIEW
 70
     0
  9
$PUCSORGTOP
 10
0.0
 20
0.0
 30
0.0
  9
$PUCSORGBOTTOM
 10
0.0
 20
0.0
 30
0.0
  9
$PUCSORGLEFT
 10
0.0
 20
0.0
 30
0.0
  9
$PUCSORGRIGHT
 10
0.0
 20
0.0
 30
0.0
  9
$PUCSORGFRONT
 10
0.0
 20
0.0
 30
0.0
  9
$PUCSORGBACK
 10
0.0
 20
0.0
 30
0.0
  9
$USERI1
 70
     0
  9
$USERI2
 70
     0
  9
$USERI3
 70
     0
  9
$USERI4
 70
     0
  9
$USERI5
 70
     0
  9
$USERR1
 40
0.0
  9
$USERR2
 40
0.0
  9
$USERR3
 40
0.0
  9
$USERR4
 40
0.0
  9
$USERR5
 40
0.0
  9
$WORLDVIEW
 70
     1
  9
$SHADEDGE
 70
     3
  9
$SHADEDIF
 70
    70
  9
$TILEMODE
 70
     1
  9
$MAXACTVP
 70
    48
  9
$PINSBASE
 10
0.0
 20
0.0
 30
0.0
  9
$PLIMCHECK
 70
     0
  9
$PEXTMIN
 10
0.0
 20
0.0
 30
0.0
  9
$PEXTMAX
 10
0.0
 20
0.0
 30
0.0
  9
$PLIMMIN
 10
0.0
 20
0.0
  9
$PLIMMAX
 10
12.0
 20
9.0
  9
$UNITMODE
 70
     0
  9
$VISRETAIN
 70
     1
  9
$PLINEGEN
 70
     0
  9
$PSLTSCALE
 70
     1
  9
$TREEDEPTH
 70
  3020
  9
$CMLSTYLE
  2
Standard
  9
$CMLJUST
 70
     0
  9
$CMLSCALE
 40
20.0
  9
$PROXYGRAPHICS
 70
     1
  9
$MEASUREMENT
 70
     1
  9
$CELWEIGHT
370
    -1
  9
$ENDCAPS
280
     0
  9
$JOINSTYLE
280
     0
  9
$LWDISPLAY
290
     0
  9
$INSUNITS
 70
     4
  9
$HYPERLINKBASE
  1

  9
$STYLESHEET
  1

  9
$XEDIT
290
     1
  9
$CEPSNTYPE
380
     0
  9
$PSTYLEMODE
290
     1
  9
$FINGERPRINTGUID
  2
{E22E2D47-196F-7340-A655-47C6E5B5DA73}
  9
$VERSIONGUID
  2
{8CB1554F-BAD5-C04F-81E9-D9CB85BE617C}
  9
$EXTNAMES
290
     1
  9
$PSVPSCALE
 40
0.0
  9
$OLESTARTUP
290
     0
  0
ENDSEC
  0
SECTION
  2
CLASSES
  0
CLASS
  1
ACDBDICTIONARYWDFLT
  2
AcDbDictionaryWithDefault
  3
ObjectDBX Classes
 90
        0
280
     0
281
     0
  0
CLASS
  1
ACDBPLACEHOLDER
  2
AcDbPlaceHolder
  3
ObjectDBX Classes
 90
        0
280
     0
281
     0
  0
CLASS
  1
LAYOUT
  2
AcDbLayout
  3
ObjectDBX Classes
 90
        0
280
     0
281
     0
  0
CLASS
  1
DICTIONARYVAR
  2
AcDbDictionaryVar
  3
ObjectDBX Classes
 90
        0
280
     0
281
     0
  0
CLASS
  1
TABLESTYLE
  2
AcDbTableStyle
  3
ObjectDBX Classes
 90
     4095
280
     0
281
     0
  0
CLASS
  1
MATERIAL
  2
AcDbMaterial
  3
ObjectDBX Classes
 90
     1153
280
     0
281
     0
  0
CLASS
  1
VISUALSTYLE
  2
AcDbVisualStyle
  3
ObjectDBX Classes
 90
     4095
280
     0
281
     0
  0
CLASS
  1
SCALE
  2
AcDbScale
  3
ObjectDBX Classes
 90
     1153
280
     0
281
     0
  0
CLASS
  1
MLEADERSTYLE
  2
AcDbMLeaderStyle
  3
ACDB_MLEADERSTYLE_CLASS
 90
     4095
280
     0
281
     0
  0
CLASS
  1
CELLSTYLEMAP
  2
AcDbCellStyleMap
  3
ObjectDBX Classes
 90
     1152
280
     0
281
     0
  0
CLASS
  1
EXACXREFPANELOBJECT
  2
ExAcXREFPanelObject
  3
EXAC_ESW
 90
    33793
280
     0
281
     0
  0
CLASS
  1
NPOCOLLECTION
  2
AcDbImpNonPersistentObjectsCollection
  3
ObjectDBX Classes
 90
    33921
280
     0
281
     0
  0
CLASS
  1
LAYER_INDEX
  2
AcDbLayerIndex
  3
ObjectDBX Classes
 90
    32768
280
     0
281
     0
  0
CLASS
  1
SPATIAL_INDEX
  2
AcDbSpatialIndex
  3
ObjectDBX Classes
 90
    32768
280
     0
281
     0
  0
CLASS
  1
IDBUFFER
  2
AcDbIdBuffer
  3
ObjectDBX Classes
 90
    32768
280
     0
281
     0
  0
CLASS
  1
ACDBSECTIONVIEWSTYLE
  2
AcDbSectionViewStyle
  3
ObjectDBX Classes
 90
     1025
280
     0
281
     0
  0
CLASS
  1
ACDBDETAILVIEWSTYLE
  2
AcDbDetailViewStyle
  3
ObjectDBX Classes
 90
     1025
280
     0
281
     0
  0
CLASS
  1
XRECORD
  2
AcDbXrecord
  3
ObjectDBX Classes
 90
        0
280
     0
281
     0
  0
ENDSEC
  0
SECTION
  2
TABLES
  0
TABLE
  2
VPORT
  5
8
102
{ACAD_XDICTIONARY
360
223D
102
}
330
0
100
AcDbSymbolTable
 70
     1
  0
VPORT
  5
EA
330
8
100
AcDbSymbolTableRecord
100
AcDbViewportTableRecord
  2
*Active
 70
     0
 10
0.0
 20
0.0
 11
1.0
 21
1.0
 12
-0.0128166494108655
 22
4.896675634193968
 13
0.0
 23
0.0
 14
10.0
 24
10.0
 15
10.0
 25
10.0
 16
0.0
 26
0.0
 36
1.0
 17
0.0
 27
0.0
 37
0.0
 40
155.7594894817525
 41
0.9846153846153846
 42
50.0
 43
0.0
 44
0.0
 50
0.0
 51
0.0
 71
     0
 72
  1000
 73
     1
 74
     3
 75
     0
 76
     1
 77
     0
 78
     0
281
     0
 65
     1
110
0.0
120
0.0
130
0.0
111
1.0
121
0.0
131
0.0
112
0.0
122
1.0
132
0.0
 79
     0
146
0.0
1001
ACAD_NAV_VCDISPLAY
1070
     3
  0
ENDTAB
  0
TABLE
  2
LTYPE
  5
5
330
0
100
AcDbSymbolTable
 70
     1
  0
LTYPE
  5
14
330
5
100
AcDbSymbolTableRecord
100
AcDbLinetypeTableRecord
  2
ByBlock
 70
     0
  3

 72
    65
 73
     0
 40
0.0
  0
LTYPE
  5
15
330
5
100
AcDbSymbolTableRecord
100
AcDbLinetypeTableRecord
  2
ByLayer
 70
     0
  3

 72
    65
 73
     0
 40
0.0
  0
LTYPE
  5
16
330
5
100
AcDbSymbolTableRecord
100
AcDbLinetypeTableRecord
  2
Continuous
 70
     0
  3
Solid line
 72
    65
 73
     0
 40
0.0
  0
ENDTAB
  0
TABLE
  2
LAYER
  5
2
102
{ACAD_XDICTIONARY
360
1FF
102
}
330
0
100
AcDbSymbolTable
 70
     1
  0
LAYER
  5
10
102
{ACAD_XDICTIONARY
360
13C
102
}
330
2
100
AcDbSymbolTableRecord
100
AcDbLayerTableRecord
  2
0
 70
     0
 62
     7
  6
Continuous
370
    -3
390
F
  0
ENDTAB
  0
TABLE
  2
STYLE
  5
3
330
0
100
AcDbSymbolTable
 70
     1
  0
STYLE
  5
11
330
3
100
AcDbSymbolTableRecord
100
AcDbTextStyleTableRecord
  2
Standard
 70
     0
 40
0.0
 41
1.0
 50
0.0
 71
     0
 42
2.5
  3
arial.ttf
  4

1001
ACAD
1000
Arial
1071
       34
  0
ENDTAB
  0
TABLE
  2
VIEW
  5
6
330
0
100
AcDbSymbolTable
 70
     0
  0
ENDTAB
  0
TABLE
  2
UCS
  5
7
330
0
100
AcDbSymbolTable
 70
     0
  0
ENDTAB
  0
TABLE
  2
APPID
  5
9
330
0
100
AcDbSymbolTable
 70
     8
  0
APPID
  5
12
330
9
100
AcDbSymbolTableRecord
100
AcDbRegAppTableRecord
  2
ACAD
 70
     0
  0
APPID
  5
9E
330
9
100
AcDbSymbolTableRecord
100
AcDbRegAppTableRecord
  2
ACAD_PSEXT
 70
     0
  0
APPID
  5
133
330
9
100
AcDbSymbolTableRecord
100
AcDbRegAppTableRecord
  2
AcadAnnoPO
 70
     0
  0
APPID
  5
134
330
9
100
AcDbSymbolTableRecord
100
AcDbRegAppTableRecord
  2
AcadAnnotative
 70
     0
  0
APPID
  5
135
330
9
100
AcDbSymbolTableRecord
100
AcDbRegAppTableRecord
  2
ACAD_DSTYLE_DIMJAG
 70
     0
  0
APPID
  5
136
330
9
100
AcDbSymbolTableRecord
100
AcDbRegAppTableRecord
  2
ACAD_DSTYLE_DIMTALN
 70
     0
  0
APPID
  5
165
330
9
100
AcDbSymbolTableRecord
100
AcDbRegAppTableRecord
  2
ACAD_MLEADERVER
 70
     0
  0
APPID
  5
217
330
9
100
AcDbSymbolTableRecord
100
AcDbRegAppTableRecord
  2
ACAD_NAV_VCDISPLAY
 70
     0
  0
ENDTAB
  0
TABLE
  2
DIMSTYLE
  5
A
330
0
100
AcDbSymbolTable
 70
     1
100
AcDbDimStyleTable
 71
     0
  0
DIMSTYLE
105
27
330
A
100
AcDbSymbolTableRecord
100
AcDbDimStyleTableRecord
  2
ISO-25
 70
     0
 41
2.5
 42
0.625
 43
3.75
 44
1.25
 73
     0
 74
     0
 77
     1
 78
     8
140
2.5
141
2.5
143
0.03937007874016
147
0.625
171
     3
172
     1
271
     2
272
     2
274
     3
278
    44
283
     0
284
     8
340
11
  0
ENDTAB
  0
TABLE
  2
BLOCK_RECORD
  5
1
330
0
100
AcDbSymbolTable
 70
     7
  0
BLOCK_RECORD
  5
1F
102
{ACAD_XDICTIONARY
360
1CE
102
}
330
1
100
AcDbSymbolTableRecord
100
AcDbBlockTableRecord
  2
*Model_Space
340
22
  0
BLOCK_RECORD
  5
D2
102
{ACAD_XDICTIONARY
360
21F0
102
}
330
1
100
AcDbSymbolTableRecord
100
AcDbBlockTableRecord
  2
*Paper_Space
340
D3
  0
BLOCK_RECORD
  5
D6
102
{ACAD_XDICTIONARY
360
21F2
102
}
330
1
100
AcDbSymbolTableRecord
100
AcDbBlockTableRecord
  2
*Paper_Space0
340
D7
  0
BLOCK_RECORD
  5
20E7
330
1
100
AcDbSymbolTableRecord
100
AcDbBlockTableRecord
  2
CCS40-C-Front
340
0
102
{BLKREFS
331
21E6
102
}
  0
BLOCK_RECORD
  5
20FF
330
1
100
AcDbSymbolTableRecord
100
AcDbBlockTableRecord
  2
CCS40-C-Left
340
0
102
{BLKREFS
331
21E7
102
}
  0
BLOCK_RECORD
  5
2117
330
1
100
AcDbSymbolTableRecord
100
AcDbBlockTableRecord
  2
CCS40-C-Right
340
0
102
{BLKREFS
331
21E8
102
}
  0
BLOCK_RECORD
  5
212F
330
1
100
AcDbSymbolTableRecord
100
AcDbBlockTableRecord
  2
CCS40-C-Top
340
0
102
{BLKREFS
331
21E9
102
}
  0
BLOCK_RECORD
  5
2187
330
1
100
AcDbSymbolTableRecord
100
AcDbBlockTableRecord
  2
CCS40-C-Bottom
340
0
102
{BLKREFS
331
21EA
102
}
  0
BLOCK_RECORD
  5
218E
330
1
100
AcDbSymbolTableRecord
100
AcDbBlockTableRecord
  2
CCS40-C-ISO
340
0
102
{BLKREFS
331
21EB
102
}
  0
ENDTAB
  0
ENDSEC
  0
SECTION
  2
BLOCKS
  0
BLOCK
  5
20
330
1F
100
AcDbEntity
  8
0
100
AcDbBlockBegin
  2
*Model_Space
 70
     0
 10
0.0
 20
0.0
 30
0.0
  3
*Model_Space
  1

  0
ENDBLK
  5
21
330
1F
100
AcDbEntity
  8
0
100
AcDbBlockEnd
  0
BLOCK
  5
D4
330
D2
100
AcDbEntity
 67
     1
  8
0
100
AcDbBlockBegin
  2
*Paper_Space
 70
     0
 10
0.0
 20
0.0
 30
0.0
  3
*Paper_Space
  1

  0
ENDBLK
  5
D5
330
D2
100
AcDbEntity
 67
     1
  8
0
100
AcDbBlockEnd
  0
BLOCK
  5
D8
330
D6
100
AcDbEntity
 67
     1
  8
0
100
AcDbBlockBegin
  2
*Paper_Space0
 70
     0
 10
0.0
 20
0.0
 30
0.0
  3
*Paper_Space0
  1

  0
ENDBLK
  5
D9
330
D6
100
AcDbEntity
 67
     1
  8
0
100
AcDbBlockEnd
  0
BLOCK
  5
20E8
330
20E7
100
AcDbEntity
  8
0
100
AcDbBlockBegin
  2
CCS40-C-Front
 70
     0
 10
0.0
 20
0.0
 30
0.0
  3
CCS40-C-Front
  1

  0
SPLINE
  5
20EA
330
20E7
100
AcDbEntity
  8
0
100
AcDbSpline
210
0.0
220
0.0
230
1.0
 70
     8
 71
     3
 72
     8
 73
     4
 74
     0
 42
0.000000001
 43
0.0000000001
 40
0.5744969913481528
 40
0.5744969913481528
 40
0.5744969913481528
 40
0.5744969913481528
 40
0.6306515730353127
 40
0.6306515730353127
 40
0.6306515730353127
 40
0.6306515730353127
 10
-0.5730064294710222
 20
14.80869650155771
 30
0.0
 10
-0.3791597843538741
 20
14.78649814996913
 30
0.0
 10
-0.1870377161514442
 20
14.77534481471923
 30
0.0
 10
0.0001442228057552
 20
14.77534481471923
 30
0.0
  0
SPLINE
  5
20EB
330
20E7
100
AcDbEntity
  8
0
100
AcDbSpline
210
0.0
220
0.0
230
1.0
 70
     8
 71
     3
 72
     8
 73
     4
 74
     0
 42
0.000000001
 43
0.0000000001
 40
0.6306515730353127
 40
0.6306515730353127
 40
0.6306515730353127
 40
0.6306515730353127
 40
0.6868061547224734
 40
0.6868061547224734
 40
0.6868061547224734
 40
0.6868061547224734
 10
0.0001442228057552
 20
14.77534481471923
 30
0.0
 10
0.1873261617629579
 20
14.77534481471923
 30
0.0
 10
0.3794482299653914
 20
14.78649814996912
 30
0.0
 10
0.5732948750825427
 20
14.80869650155771
 30
0.0
  0
SPLINE
  5
20EC
330
20E7
100
AcDbEntity
  8
0
100
AcDbSpline
210
0.0
220
0.0
230
1.0
 70
     8
 71
     3
 72
    16
 73
    12
 74
     0
 42
0.000000001
 43
0.0000000001
 40
0.0
 40
0.0
 40
0.0
 40
0.0
 40
0.1854267130171538
 40
0.1854267130171538
 40
0.3708534260343076
 40
0.3708534260343076
 40
0.4935383042703691
 40
0.4935383042703691
 40
0.5548807433883997
 40
0.5548807433883997
 40
0.6162231824955847
 40
0.6162231824955847
 40
0.6162231825064304
 40
0.6162231825064304
 10
-19.73402664906014
 20
10.54117394285333
 30
0.0
 10
-19.73402664906014
 20
9.923084899462821
 30
0.0
 10
-19.74984458101653
 20
9.254804593225673
 30
0.0
 10
-19.80729888162765
 20
7.986008810905403
 30
0.0
 10
-19.84836935532156
 20
7.385021870463236
 30
0.0
 10
-19.91424135026817
 20
6.569082405169915
 30
0.0
 10
-19.94312646373773
 20
6.253749304729923
 30
0.0
 10
-19.97551071802165
 20
5.919222956737232
 30
0.0
 10
-19.98446396841039
 20
5.830135188701129
 30
0.0
 10
-19.99664690750195
 20
5.710058629846783
 30
0.0
 10
-19.99985577719311
 20
5.679150737017591
 30
0.0
 10
-19.99985577719425
 20
5.679150737006663
 30
0.0
  0
SPLINE
  5
20ED
330
20E7
100
AcDbEntity
  8
0
100
AcDbSpline
210
0.0
220
0.0
230
1.0
 70
     8
 71
     3
 72
    14
 73
    10
 74
     0
 42
0.000000001
 43
0.0000000001
 40
1.810084405313214
 40
1.810084405313214
 40
1.810084405314308
 40
1.810084405314308
 40
1.929969415964204
 40
1.929969415964204
 40
2.049854426615193
 40
2.049854426615193
 40
2.218729342655086
 40
2.218729342655086
 40
2.387604258694978
 40
2.387604258694978
 40
2.387604258694978
 40
2.387604258694978
 10
-19.99985577719425
 20
14.87153889243178
 30
0.0
 10
-19.99985577719401
 20
14.87153889242999
 30
0.0
 10
-19.98668023658594
 20
14.77344070682726
 30
0.0
 10
-19.94165483610386
 20
14.39789157939694
 30
0.0
 10
-19.91062810224087
 20
14.12088326141002
 30
0.0
 10
-19.84217504178631
 20
13.39493451800378
 30
0.0
 10
-19.80153550923276
 20
12.8603756216034
 30
0.0
 10
-19.74733209867103
 20
11.71487997633052
 30
0.0
 10
-19.73402664906014
 20
11.10409032965297
 30
0.0
 10
-19.73402664906014
 20
10.54117394285333
 30
0.0
  0
SPLINE
  5
20EE
330
20E7
100
AcDbEntity
  8
0
100
AcDbSpline
210
0.0
220
0.0
230
1.0
 70
    11
 71
     3
 72
    42
 73
    38
 74
     0
 42
0.000000001
 43
0.0000000001
 40
0.0
 40
0.0
 40
0.0
 40
0.0
 40
0.1854267130171537
 40
0.1854267130171537
 40
0.3708534260343075
 40
0.3708534260343075
 40
0.4935383042703689
 40
0.4935383042703689
 40
0.5548807433883996
 40
0.5548807433883996
 40
0.6162231825064302
 40
0.6162231825064302
 40
0.6775656216244608
 40
0.6775656216244608
 40
0.7389080607424914
 40
0.7389080607424914
 40
0.8615929389785526
 40
0.8615929389785526
 40
1.047019651995706
 40
1.047019651995706
 40
1.23244636501286
 40
1.23244636501286
 40
1.390779175149877
 40
1.390779175149877
 40
1.549111985286894
 40
1.549111985286894
 40
1.679598195300054
 40
1.679598195300054
 40
1.810084405313213
 40
1.810084405313213
 40
1.929969415964203
 40
1.929969415964203
 40
2.049854426615193
 40
2.049854426615193
 40
2.218729342655085
 40
2.218729342655085
 40
2.387604258694977
 40
2.387604258694977
 40
2.387604258694977
 40
2.387604258694977
 10
-11.65592478292837
 20
10.54117394285333
 30
0.0
 10
-11.65592478292837
 20
9.923084899462823
 30
0.0
 10
-11.7318860225647
 20
9.254804593225676
 30
0.0
 10
-12.04334759182855
 20
7.986008810905406
 30
0.0
 10
-12.27740219086762
 20
7.385021870463239
 30
0.0
 10
-12.76256482897689
 20
6.569082405169917
 30
0.0
 10
-13.00672655159704
 20
6.253749304729923
 30
0.0
 10
-13.41541077467917
 20
5.919222956737232
 30
0.0
 10
-13.55868212421148
 20
5.830135188701127
 30
0.0
 10
-13.84967821727851
 20
5.710058629836166
 30
0.0
 10
-13.99740588534225
 20
5.679150737006666
 30
0.0
 10
-14.28657691650813
 20
5.679150737006666
 30
0.0
 10
-14.42976655753466
 20
5.710058629836165
 30
0.0
 10
-14.70353337290731
 20
5.830135188701128
 30
0.0
 10
-14.83414291431255
 20
5.919222956737232
 30
0.0
 10
-15.19702888577903
 20
6.253749304729923
 30
0.0
 10
-15.40034088917983
 20
6.569082405169913
 30
0.0
 10
-15.79234645865503
 20
7.385021870463233
 30
0.0
 10
-15.9683186367831
 20
7.986008810905401
 30
0.0
 10
-16.19852755490603
 20
9.254804593225671
 30
0.0
 10
-16.25211886064094
 20
9.923084899462818
 30
0.0
 10
-16.25211886064094
 20
11.06894997664338
 30
0.0
 10
-16.21265425289973
 20
11.64257901060008
 30
0.0
 10
-16.02402180472665
 20
12.72856033602792
 30
0.0
 10
-15.87418375453571
 20
13.24069887426971
 30
0.0
 10
-15.50778474288545
 20
14.00157089286953
 30
0.0
 10
-15.28596165982882
 20
14.32057743914853
 30
0.0
 10
-14.75731238944686
 20
14.75572705311497
 30
0.0
 10
-14.44955034743065
 20
14.87153889243178
 30
0.0
 10
-13.8594197209454
 20
14.87153889243178
 30
0.0
 10
-13.5543200986703
 20
14.77344070682897
 30
0.0
 10
-12.9902537908246
 20
14.39789157939693
 30
0.0
 10
-12.73167838682162
 20
14.12088326141001
 30
0.0
 10
-12.23898738596248
 20
13.39493451800378
 30
0.0
 10
-12.01099808529817
 20
12.8603756216034
 30
0.0
 10
-11.7195555961619
 20
11.71487997633052
 30
0.0
 10
-11.65592478292837
 20
11.10409032965298
 30
0.0
 10
-11.65592478292837
 20
10.54117394285333
 30
0.0
  0
ELLIPSE
  5
20EF
330
20E7
100
AcDbEntity
  8
0
100
AcDbEllipse
 10
0.0001442228057572
 20
15.65922829120241
 30
0.0
 11
-3.25
 21
0.0000000000002348
 31
0.0
210
0.0
220
0.0
230
1.0
 40
0.7071067811865476
 41
0.8710228296564332
 42
2.27056982393362
  0
SPLINE
  5
20F0
330
20E7
100
AcDbEntity
  8
0
100
AcDbSpline
210
0.0
220
0.0
230
1.0
 70
    11
 71
     3
 72
    42
 73
    38
 74
     0
 42
0.000000001
 43
0.0000000001
 40
0.0
 40
0.0
 40
0.0
 40
0.0
 40
0.1854267130171538
 40
0.1854267130171538
 40
0.3708534260343076
 40
0.3708534260343076
 40
0.4935383042703691
 40
0.4935383042703691
 40
0.5548807433883997
 40
0.5548807433883997
 40
0.6162231825064304
 40
0.6162231825064304
 40
0.677565621624461
 40
0.677565621624461
 40
0.7389080607424918
 40
0.7389080607424918
 40
0.8615929389785531
 40
0.8615929389785531
 40
1.047019651995706
 40
1.047019651995706
 40
1.23244636501286
 40
1.23244636501286
 40
1.390779175149877
 40
1.390779175149877
 40
1.549111985286894
 40
1.549111985286894
 40
1.679598195300054
 40
1.679598195300054
 40
1.810084405313214
 40
1.810084405313214
 40
1.929969415964204
 40
1.929969415964204
 40
2.049854426615193
 40
2.049854426615193
 40
2.218729342655086
 40
2.218729342655086
 40
2.387604258694978
 40
2.387604258694978
 40
2.387604258694978
 40
2.387604258694978
 10
3.250144222805761
 20
10.54117394285334
 30
0.0
 10
3.250144222805761
 20
9.923084899462827
 30
0.0
 10
3.158536739453783
 20
9.254804593225678
 30
0.0
 10
2.775517864653975
 20
7.986008810905408
 30
0.0
 10
2.485585150051023
 20
7.385021870463241
 30
0.0
 10
1.865333562226797
 20
6.569082405169918
 30
0.0
 10
1.548921856154571
 20
6.253749304729928
 30
0.0
 10
1.00333933942782
 20
5.919222956737238
 30
0.0
 10
0.8096763042084702
 20
5.830135188701134
 30
0.0
 10
0.4103286218881356
 20
5.710058629836173
 30
0.0
 10
0.2046190198658657
 20
5.679150737006667
 30
0.0
 10
-0.2043305742543388
 20
5.679150737006667
 30
0.0
 10
-0.4100401762766082
 20
5.710058629836173
 30
0.0
 10
-0.8093878585969425
 20
5.830135188701134
 30
0.0
 10
-1.003050893816293
 20
5.919222956737238
 30
0.0
 10
-1.548633410543045
 20
6.253749304729928
 30
0.0
 10
-1.865045116615271
 20
6.56908240516992
 30
0.0
 10
-2.485296704439497
 20
7.385021870463241
 30
0.0
 10
-2.77522941904245
 20
7.986008810905405
 30
0.0
 10
-3.158248293842258
 20
9.254804593225676
 30
0.0
 10
-3.249855777194237
 20
9.923084899462825
 30
0.0
 10
-3.249855777194237
 20
11.06894997664339
 30
0.0
 10
-3.182412919574693
 20
11.64257901060009
 30
0.0
 10
-2.867452959458517
 20
12.72856033602793
 30
0.0
 10
-2.619171318478467
 20
13.24069887426972
 30
0.0
 10
-2.033228246760967
 20
14.00157089286954
 30
0.0
 10
-1.684750903548746
 20
14.32057743914854
 30
0.0
 10
-0.8856662594098791
 20
14.75572705311497
 30
0.0
 10
-0.4348098105714391
 20
14.87153889243178
 30
0.0
 10
0.3997609249757264
 20
14.87153889243178
 30
0.0
 10
0.8180614080639859
 20
14.77344070682898
 30
0.0
 10
1.570746230214801
 20
14.39789157939694
 30
0.0
 10
1.905400339588925
 20
14.12088326141002
 30
0.0
 10
2.53371757460854
 20
13.39493451800379
 30
0.0
 10
2.815503603130422
 20
12.8603756216034
 30
0.0
 10
3.173462113356961
 20
11.71487997633052
 30
0.0
 10
3.250144222805761
 20
11.10409032965298
 30
0.0
 10
3.250144222805761
 20
10.54117394285334
 30
0.0
  0
SPLINE
  5
20F1
330
20E7
100
AcDbEntity
  8
0
100
AcDbSpline
210
0.0
220
0.0
230
1.0
 70
    11
 71
     3
 72
    42
 73
    38
 74
     0
 42
0.000000001
 43
0.0000000001
 40
0.0
 40
0.0
 40
0.0
 40
0.0
 40
0.1854267130171537
 40
0.1854267130171537
 40
0.3708534260343075
 40
0.3708534260343075
 40
0.4935383042703689
 40
0.4935383042703689
 40
0.5548807433883996
 40
0.5548807433883996
 40
0.6162231825064302
 40
0.6162231825064302
 40
0.6775656216244608
 40
0.6775656216244608
 40
0.7389080607424914
 40
0.7389080607424914
 40
0.8615929389785526
 40
0.8615929389785526
 40
1.047019651995706
 40
1.047019651995706
 40
1.23244636501286
 40
1.23244636501286
 40
1.390779175149877
 40
1.390779175149877
 40
1.549111985286894
 40
1.549111985286894
 40
1.679598195300054
 40
1.679598195300054
 40
1.810084405313213
 40
1.810084405313213
 40
1.929969415964203
 40
1.929969415964203
 40
2.049854426615193
 40
2.049854426615193
 40
2.218729342655085
 40
2.218729342655085
 40
2.387604258694977
 40
2.387604258694977
 40
2.387604258694977
 40
2.387604258694977
 10
16.25240730625245
 20
10.54117394285334
 30
0.0
 10
16.25240730625245
 20
9.923084899462828
 30
0.0
 10
16.19881600051754
 20
9.254804593225681
 30
0.0
 10
15.96860708239462
 20
7.986008810905413
 30
0.0
 10
15.79263490426655
 20
7.385021870463245
 30
0.0
 10
15.40062933479135
 20
6.569082405169925
 30
0.0
 10
15.19731733139055
 20
6.253749304729931
 30
0.0
 10
14.83443135992407
 20
5.91922295673724
 30
0.0
 10
14.70382181851883
 20
5.830135188701134
 30
0.0
 10
14.43005500314618
 20
5.710058629836173
 30
0.0
 10
14.28686536211965
 20
5.679150737006672
 30
0.0
 10
13.99769433095377
 20
5.679150737006672
 30
0.0
 10
13.84996666289003
 20
5.710058629836172
 30
0.0
 10
13.558970569823
 20
5.830135188701135
 30
0.0
 10
13.41569922029069
 20
5.91922295673724
 30
0.0
 10
13.00701499720856
 20
6.253749304729931
 30
0.0
 10
12.76285327458841
 20
6.56908240516992
 30
0.0
 10
12.27769063647915
 20
7.385021870463239
 30
0.0
 10
12.04363603744007
 20
7.986008810905406
 30
0.0
 10
11.73217446817622
 20
9.254804593225676
 30
0.0
 10
11.65621322853989
 20
9.923084899462823
 30
0.0
 10
11.65621322853989
 20
11.06894997664339
 30
0.0
 10
11.71212722472944
 20
11.64257901060009
 30
0.0
 10
11.96891542375715
 20
12.72856033602793
 30
0.0
 10
12.17020063752844
 20
13.24069887426971
 30
0.0
 10
12.63245026467963
 20
14.00157089286954
 30
0.0
 10
12.90344856657346
 20
14.32057743914854
 30
0.0
 10
13.50487563741676
 20
14.75572705311498
 30
0.0
 10
13.83472090003125
 20
14.87153889243178
 30
0.0
 10
14.4248515265165
 20
14.87153889243178
 30
0.0
 10
14.71131812057203
 20
14.77344070682898
 30
0.0
 10
15.21170889640439
 20
14.39789157939694
 30
0.0
 10
15.42640587258218
 20
14.12088326141002
 30
0.0
 10
15.82228962696055
 20
13.39493451800379
 30
0.0
 10
15.99280594951913
 20
12.86037562160341
 30
0.0
 10
16.20759324031211
 20
11.71487997633053
 30
0.0
 10
16.25240730625245
 20
11.10409032965298
 30
0.0
 10
16.25240730625245
 20
10.54117394285334
 30
0.0
  0
SPLINE
  5
20F2
330
20E7
100
AcDbEntity
  8
0
100
AcDbSpline
210
0.0
220
0.0
230
1.0
 70
     8
 71
     3
 72
    24
 73
    20
 74
     0
 42
0.000000001
 43
0.0000000001
 40
0.6162231825064304
 40
0.6162231825064304
 40
0.6162231825064304
 40
0.6162231825064304
 40
0.677565621624461
 40
0.677565621624461
 40
0.7389080607424918
 40
0.7389080607424918
 40
0.8615929389785531
 40
0.8615929389785531
 40
1.047019651995706
 40
1.047019651995706
 40
1.23244636501286
 40
1.23244636501286
 40
1.401321281052753
 40
1.401321281052753
 40
1.570196197092645
 40
1.570196197092645
 40
1.690081207743635
 40
1.690081207743635
 40
1.809966218394625
 40
1.809966218394625
 40
1.809966218394625
 40
1.809966218394625
 10
20.00014422280576
 20
5.679150737006671
 30
0.0
 10
20.00014422280576
 20
5.679150737006671
 30
0.0
 10
19.99693535311454
 20
5.710058629836177
 30
0.0
 10
19.98475241402189
 20
5.830135188701138
 30
0.0
 10
19.97579916363316
 20
5.919222956737241
 30
0.0
 10
19.94341490934924
 20
6.253749304729932
 30
0.0
 10
19.91452979587968
 20
6.569082405169925
 30
0.0
 10
19.84865780093307
 20
7.385021870463245
 30
0.0
 10
19.80758732723916
 20
7.986008810905412
 30
0.0
 10
19.75013302662803
 20
9.254804593225681
 30
0.0
 10
19.73431509467164
 20
9.92308489946283
 30
0.0
 10
19.73431509467164
 20
11.10409032965298
 30
0.0
 10
19.74762054428253
 20
11.71487997633052
 30
0.0
 10
19.80182395484426
 20
12.86037562160341
 30
0.0
 10
19.84246348739782
 20
13.39493451800379
 30
0.0
 10
19.91091654785237
 20
14.12088326141003
 30
0.0
 10
19.94194328171537
 20
14.39789157939695
 30
0.0
 10
19.98696868219765
 20
14.77344070682899
 30
0.0
 10
20.00014422280576
 20
14.87153889243178
 30
0.0
 10
20.00014422280576
 20
14.87153889243178
 30
0.0
  0
LINE
  5
20F3
330
20E7
100
AcDbEntity
  8
0
100
AcDbLine
 10
-19.99985577719425
 20
0.999966017177976
 30
0.0
 11
20.00014422280576
 21
0.9999660171779849
 31
0.0
  0
LINE
  5
20F4
330
20E7
100
AcDbEntity
  8
0
100
AcDbLine
 10
19.00014422280576
 20
-0.0000339828220162
 30
0.0
 11
-18.99985577719425
 21
-0.0000339828220246
 31
0.0
  0
LINE
  5
20F5
330
20E7
100
AcDbEntity
  8
0
100
AcDbLine
 10
20.00014422280576
 20
23.99996601717798
 30
0.0
 11
-19.99985577719425
 21
23.99996601717798
 31
0.0
  0
LINE
  5
20F6
330
20E7
100
AcDbEntity
  8
0
100
AcDbLine
 10
-18.99985577719425
 20
24.99996601717798
 30
0.0
 11
19.00014422280575
 21
24.99996601717799
 31
0.0
  0
LINE
  5
20F7
330
20E7
100
AcDbEntity
  8
0
100
AcDbLine
 10
-18.99985577719425
 20
-0.0000339828220246
 30
0.0
 11
-19.99985577719425
 21
0.9999660171779758
 31
0.0
  0
LINE
  5
20F8
330
20E7
100
AcDbEntity
  8
0
100
AcDbLine
 10
19.00014422280576
 20
-0.0000339828220161
 30
0.0
 11
20.00014422280576
 21
0.9999660171779847
 31
0.0
  0
LINE
  5
20F9
330
20E7
100
AcDbEntity
  8
0
100
AcDbLine
 10
19.00014422280575
 20
24.99996601717799
 30
0.0
 11
20.00014422280576
 21
23.99996601717798
 31
0.0
  0
LINE
  5
20FA
330
20E7
100
AcDbEntity
  8
0
100
AcDbLine
 10
-18.99985577719425
 20
24.99996601717798
 30
0.0
 11
-19.99985577719425
 21
23.99996601717798
 31
0.0
  0
LINE
  5
20FB
330
20E7
100
AcDbEntity
  8
0
100
AcDbLine
 10
20.00014422280576
 20
23.99996601717798
 30
0.0
 11
20.00014422280576
 21
14.87153889243178
 31
0.0
  0
LINE
  5
20FC
330
20E7
100
AcDbEntity
  8
0
100
AcDbLine
 10
20.00014422280576
 20
5.679150737006672
 30
0.0
 11
20.00014422280576
 21
0.9999660171779844
 31
0.0
  0
LINE
  5
20FD
330
20E7
100
AcDbEntity
  8
0
100
AcDbLine
 10
-19.99985577719425
 20
23.99996601717798
 30
0.0
 11
-19.99985577719425
 21
14.87153889243178
 31
0.0
  0
LINE
  5
20FE
330
20E7
100
AcDbEntity
  8
0
100
AcDbLine
 10
-19.99985577719425
 20
5.679150737006665
 30
0.0
 11
-19.99985577719425
 21
0.9999660171779755
 31
0.0
  0
ENDBLK
  5
20E9
330
20E7
100
AcDbEntity
  8
0
100
AcDbBlockEnd
  0
BLOCK
  5
2100
330
20FF
100
AcDbEntity
  8
0
100
AcDbBlockBegin
  2
CCS40-C-Left
 70
     0
 10
0.0
 20
0.0
 30
0.0
  3
CCS40-C-Left
  1

  0
SPLINE
  5
2102
330
20FF
100
AcDbEntity
  8
0
100
AcDbSpline
210
0.0
220
0.0
230
1.0
 70
     8
 71
     3
 72
     8
 73
     4
 74
     0
 42
0.000000001
 43
0.0000000001
 40
0.5744969913481527
 40
0.5744969913481527
 40
0.5744969913481527
 40
0.5744969913481527
 40
0.6306515730353127
 40
0.6306515730353127
 40
0.6306515730353127
 40
0.6306515730353127
 10
-0.573150652276774
 20
14.80869650155771
 30
0.0
 10
-0.3793040071596257
 20
14.78649814996912
 30
0.0
 10
-0.1871819389571954
 20
14.77534481471923
 30
0.0
 10
0.0000000000000044
 20
14.77534481471923
 30
0.0
  0
SPLINE
  5
2103
330
20FF
100
AcDbEntity
  8
0
100
AcDbSpline
210
0.0
220
0.0
230
1.0
 70
     8
 71
     3
 72
     8
 73
     4
 74
     0
 42
0.000000001
 43
0.0000000001
 40
0.6306515730353127
 40
0.6306515730353127
 40
0.6306515730353127
 40
0.6306515730353127
 40
0.6868061547224729
 40
0.6868061547224729
 40
0.6868061547224729
 40
0.6868061547224729
 10
0.0000000000000044
 20
14.77534481471923
 30
0.0
 10
0.1871819389572052
 20
14.77534481471923
 30
0.0
 10
0.3793040071596367
 20
14.78649814996912
 30
0.0
 10
0.5731506522767863
 20
14.8086965015577
 30
0.0
  0
SPLINE
  5
2104
330
20FF
100
AcDbEntity
  8
0
100
AcDbSpline
210
0.0
220
0.0
230
1.0
 70
    11
 71
     3
 72
    42
 73
    38
 74
     0
 42
0.000000001
 43
0.0000000001
 40
0.0
 40
0.0
 40
0.0
 40
0.0
 40
0.1854267130171537
 40
0.1854267130171537
 40
0.3708534260343075
 40
0.3708534260343075
 40
0.4935383042703689
 40
0.4935383042703689
 40
0.5548807433883996
 40
0.5548807433883996
 40
0.6162231825064302
 40
0.6162231825064302
 40
0.6775656216244608
 40
0.6775656216244608
 40
0.7389080607424914
 40
0.7389080607424914
 40
0.8615929389785526
 40
0.8615929389785526
 40
1.047019651995706
 40
1.047019651995706
 40
1.23244636501286
 40
1.23244636501286
 40
1.390779175149877
 40
1.390779175149877
 40
1.549111985286894
 40
1.549111985286894
 40
1.679598195300054
 40
1.679598195300054
 40
1.810084405313213
 40
1.810084405313213
 40
1.929969415964203
 40
1.929969415964203
 40
2.049854426615193
 40
2.049854426615193
 40
2.218729342655085
 40
2.218729342655085
 40
2.387604258694977
 40
2.387604258694977
 40
2.387604258694977
 40
2.387604258694977
 10
-11.65606900573412
 20
10.54117394285333
 30
0.0
 10
-11.65606900573412
 20
9.923084899462823
 30
0.0
 10
-11.73203024537045
 20
9.254804593225674
 30
0.0
 10
-12.0434918146343
 20
7.986008810905405
 30
0.0
 10
-12.27754641367337
 20
7.385021870463238
 30
0.0
 10
-12.76270905178264
 20
6.569082405169917
 30
0.0
 10
-13.00687077440279
 20
6.253749304729923
 30
0.0
 10
-13.41555499748493
 20
5.919222956737232
 30
0.0
 10
-13.55882634701724
 20
5.830135188701127
 30
0.0
 10
-13.84982244008426
 20
5.710058629836166
 30
0.0
 10
-13.997550108148
 20
5.679150737006666
 30
0.0
 10
-14.28672113931388
 20
5.679150737006666
 30
0.0
 10
-14.42991078034041
 20
5.710058629836165
 30
0.0
 10
-14.70367759571306
 20
5.830135188701128
 30
0.0
 10
-14.8342871371183
 20
5.919222956737232
 30
0.0
 10
-15.19717310858478
 20
6.253749304729923
 30
0.0
 10
-15.40048511198558
 20
6.569082405169915
 30
0.0
 10
-15.79249068146078
 20
7.385021870463235
 30
0.0
 10
-15.96846285958885
 20
7.986008810905403
 30
0.0
 10
-16.19867177771178
 20
9.254804593225673
 30
0.0
 10
-16.25226308344669
 20
9.92308489946282
 30
0.0
 10
-16.25226308344669
 20
11.06894997664339
 30
0.0
 10
-16.21279847570548
 20
11.64257901060008
 30
0.0
 10
-16.0241660275324
 20
12.72856033602792
 30
0.0
 10
-15.87432797734146
 20
13.24069887426971
 30
0.0
 10
-15.5079289656912
 20
14.00157089286954
 30
0.0
 10
-15.28610588263457
 20
14.32057743914853
 30
0.0
 10
-14.75745661225261
 20
14.75572705311497
 30
0.0
 10
-14.4496945702364
 20
14.87153889243178
 30
0.0
 10
-13.85956394375116
 20
14.87153889243178
 30
0.0
 10
-13.55446432147605
 20
14.77344070682897
 30
0.0
 10
-12.99039801363035
 20
14.39789157939693
 30
0.0
 10
-12.73182260962737
 20
14.12088326141001
 30
0.0
 10
-12.23913160876823
 20
13.39493451800378
 30
0.0
 10
-12.01114230810392
 20
12.8603756216034
 30
0.0
 10
-11.71969981896765
 20
11.71487997633052
 30
0.0
 10
-11.65606900573412
 20
11.10409032965297
 30
0.0
 10
-11.65606900573412
 20
10.54117394285333
 30
0.0
  0
ELLIPSE
  5
2105
330
20FF
100
AcDbEntity
  8
0
100
AcDbEllipse
 10
0.0000000000000066
 20
15.65922829120241
 30
0.0
 11
-3.25
 21
0.0000000000002356
 31
0.0
210
0.0
220
0.0
230
1.0
 40
0.7071067811865475
 41
0.8710228296564341
 42
2.270569823933618
  0
SPLINE
  5
2106
330
20FF
100
AcDbEntity
  8
0
100
AcDbSpline
210
0.0
220
0.0
230
1.0
 70
    11
 71
     3
 72
    42
 73
    38
 74
     0
 42
0.000000001
 43
0.0000000001
 40
0.0
 40
0.0
 40
0.0
 40
0.0
 40
0.1854267130171538
 40
0.1854267130171538
 40
0.3708534260343076
 40
0.3708534260343076
 40
0.4935383042703691
 40
0.4935383042703691
 40
0.5548807433883997
 40
0.5548807433883997
 40
0.6162231825064304
 40
0.6162231825064304
 40
0.677565621624461
 40
0.677565621624461
 40
0.7389080607424918
 40
0.7389080607424918
 40
0.8615929389785531
 40
0.8615929389785531
 40
1.047019651995706
 40
1.047019651995706
 40
1.23244636501286
 40
1.23244636501286
 40
1.390779175149877
 40
1.390779175149877
 40
1.549111985286894
 40
1.549111985286894
 40
1.679598195300054
 40
1.679598195300054
 40
1.810084405313214
 40
1.810084405313214
 40
1.929969415964204
 40
1.929969415964204
 40
2.049854426615193
 40
2.049854426615193
 40
2.218729342655086
 40
2.218729342655086
 40
2.387604258694978
 40
2.387604258694978
 40
2.387604258694978
 40
2.387604258694978
 10
3.25000000000001
 20
10.54117394285333
 30
0.0
 10
3.25000000000001
 20
9.923084899462821
 30
0.0
 10
3.158392516648031
 20
9.254804593225673
 30
0.0
 10
2.775373641848223
 20
7.986008810905403
 30
0.0
 10
2.485440927245271
 20
7.385021870463236
 30
0.0
 10
1.865189339421045
 20
6.569082405169915
 30
0.0
 10
1.548777633348818
 20
6.253749304729923
 30
0.0
 10
1.003195116622068
 20
5.919222956737232
 30
0.0
 10
0.8095320814027173
 20
5.830135188701129
 30
0.0
 10
0.4101843990823828
 20
5.710058629836169
 30
0.0
 10
0.2044747970601128
 20
5.679150737006662
 30
0.0
 10
-0.2044747970600916
 20
5.679150737006662
 30
0.0
 10
-0.410184399082361
 20
5.710058629836169
 30
0.0
 10
-0.8095320814026953
 20
5.830135188701129
 30
0.0
 10
-1.003195116622046
 20
5.919222956737232
 30
0.0
 10
-1.548777633348798
 20
6.253749304729923
 30
0.0
 10
-1.865189339421023
 20
6.569082405169916
 30
0.0
 10
-2.48544092724525
 20
7.385021870463236
 30
0.0
 10
-2.775373641848202
 20
7.986008810905403
 30
0.0
 10
-3.15839251664801
 20
9.254804593225673
 30
0.0
 10
-3.249999999999988
 20
9.923084899462821
 30
0.0
 10
-3.249999999999988
 20
11.06894997664339
 30
0.0
 10
-3.182557142380444
 20
11.64257901060008
 30
0.0
 10
-2.867597182264268
 20
12.72856033602792
 30
0.0
 10
-2.619315541284219
 20
13.24069887426971
 30
0.0
 10
-2.033372469566718
 20
14.00157089286954
 30
0.0
 10
-1.684895126354497
 20
14.32057743914853
 30
0.0
 10
-0.8858104822156299
 20
14.75572705311497
 30
0.0
 10
-0.4349540333771899
 20
14.87153889243178
 30
0.0
 10
0.3996167021699756
 20
14.87153889243178
 30
0.0
 10
0.8179171852582351
 20
14.77344070682898
 30
0.0
 10
1.57060200740905
 20
14.39789157939694
 30
0.0
 10
1.905256116783173
 20
14.12088326141002
 30
0.0
 10
2.533573351802789
 20
13.39493451800378
 30
0.0
 10
2.815359380324671
 20
12.8603756216034
 30
0.0
 10
3.17331789055121
 20
11.71487997633052
 30
0.0
 10
3.25000000000001
 20
11.10409032965297
 30
0.0
 10
3.25000000000001
 20
10.54117394285333
 30
0.0
  0
SPLINE
  5
2107
330
20FF
100
AcDbEntity
  8
0
100
AcDbSpline
210
0.0
220
0.0
230
1.0
 70
    11
 71
     3
 72
    42
 73
    38
 74
     0
 42
0.000000001
 43
0.0000000001
 40
0.0
 40
0.0
 40
0.0
 40
0.0
 40
0.1854267130171537
 40
0.1854267130171537
 40
0.3708534260343075
 40
0.3708534260343075
 40
0.4935383042703689
 40
0.4935383042703689
 40
0.5548807433883996
 40
0.5548807433883996
 40
0.6162231825064302
 40
0.6162231825064302
 40
0.6775656216244608
 40
0.6775656216244608
 40
0.7389080607424914
 40
0.7389080607424914
 40
0.8615929389785526
 40
0.8615929389785526
 40
1.047019651995706
 40
1.047019651995706
 40
1.23244636501286
 40
1.23244636501286
 40
1.390779175149877
 40
1.390779175149877
 40
1.549111985286894
 40
1.549111985286894
 40
1.679598195300054
 40
1.679598195300054
 40
1.810084405313213
 40
1.810084405313213
 40
1.929969415964203
 40
1.929969415964203
 40
2.049854426615193
 40
2.049854426615193
 40
2.218729342655085
 40
2.218729342655085
 40
2.387604258694977
 40
2.387604258694977
 40
2.387604258694977
 40
2.387604258694977
 10
16.2522630834467
 20
10.54117394285333
 30
0.0
 10
16.2522630834467
 20
9.923084899462823
 30
0.0
 10
16.19867177771179
 20
9.254804593225676
 30
0.0
 10
15.96846285958887
 20
7.986008810905406
 30
0.0
 10
15.79249068146079
 20
7.385021870463239
 30
0.0
 10
15.4004851119856
 20
6.569082405169918
 30
0.0
 10
15.1971731085848
 20
6.253749304729923
 30
0.0
 10
14.83428713711832
 20
5.919222956737232
 30
0.0
 10
14.70367759571308
 20
5.830135188701127
 30
0.0
 10
14.42991078034043
 20
5.710058629836166
 30
0.0
 10
14.2867211393139
 20
5.679150737006666
 30
0.0
 10
13.99755010814802
 20
5.679150737006666
 30
0.0
 10
13.84982244008428
 20
5.710058629836165
 30
0.0
 10
13.55882634701725
 20
5.830135188701128
 30
0.0
 10
13.41555499748494
 20
5.919222956737232
 30
0.0
 10
13.00687077440281
 20
6.253749304729923
 30
0.0
 10
12.76270905178266
 20
6.569082405169913
 30
0.0
 10
12.27754641367339
 20
7.385021870463233
 30
0.0
 10
12.04349181463432
 20
7.986008810905401
 30
0.0
 10
11.73203024537047
 20
9.254804593225671
 30
0.0
 10
11.65606900573414
 20
9.923084899462818
 30
0.0
 10
11.65606900573414
 20
11.06894997664338
 30
0.0
 10
11.71198300192369
 20
11.64257901060008
 30
0.0
 10
11.9687712009514
 20
12.72856033602792
 30
0.0
 10
12.17005641472269
 20
13.24069887426971
 30
0.0
 10
12.63230604187388
 20
14.00157089286953
 30
0.0
 10
12.90330434376771
 20
14.32057743914853
 30
0.0
 10
13.50473141461101
 20
14.75572705311497
 30
0.0
 10
13.8345766772255
 20
14.87153889243178
 30
0.0
 10
14.42470730371075
 20
14.87153889243178
 30
0.0
 10
14.71117389776628
 20
14.77344070682897
 30
0.0
 10
15.21156467359864
 20
14.39789157939693
 30
0.0
 10
15.42626164977643
 20
14.12088326141001
 30
0.0
 10
15.8221454041548
 20
13.39493451800378
 30
0.0
 10
15.99266172671338
 20
12.8603756216034
 30
0.0
 10
16.20744901750636
 20
11.71487997633052
 30
0.0
 10
16.2522630834467
 20
11.10409032965298
 30
0.0
 10
16.2522630834467
 20
10.54117394285333
 30
0.0
  0
SPLINE
  5
2108
330
20FF
100
AcDbEntity
  8
0
100
AcDbSpline
210
0.0
220
0.0
230
1.0
 70
     8
 71
     3
 72
    24
 73
    20
 74
     0
 42
0.000000001
 43
0.0000000001
 40
0.6162231825064304
 40
0.6162231825064304
 40
0.6162231825064309
 40
0.6162231825064309
 40
0.677565621624461
 40
0.677565621624461
 40
0.7389080607424918
 40
0.7389080607424918
 40
0.8615929389785531
 40
0.8615929389785531
 40
1.047019651995706
 40
1.047019651995706
 40
1.23244636501286
 40
1.23244636501286
 40
1.390779175149877
 40
1.390779175149877
 40
1.549111985286894
 40
1.549111985286894
 40
1.679598195300054
 40
1.679598195300054
 40
1.810084405313214
 40
1.810084405313214
 40
1.810084405313214
 40
1.810084405313214
 10
20.0
 20
5.679150737006667
 30
0.0
 10
20.0
 20
5.679150737006667
 30
0.0
 10
19.99679113030878
 20
5.710058629836173
 30
0.0
 10
19.98460819121614
 20
5.830135188701134
 30
0.0
 10
19.97565494082741
 20
5.919222956737238
 30
0.0
 10
19.94327068654349
 20
6.253749304729928
 30
0.0
 10
19.91438557307393
 20
6.56908240516992
 30
0.0
 10
19.84851357812732
 20
7.385021870463241
 30
0.0
 10
19.80744310443341
 20
7.986008810905405
 30
0.0
 10
19.74998880382229
 20
9.254804593225676
 30
0.0
 10
19.73417087186589
 20
9.923084899462825
 30
0.0
 10
19.73417087186589
 20
11.06894997664339
 30
0.0
 10
19.74580234598408
 20
11.64257901060009
 30
0.0
 10
19.79399573959026
 20
12.72856033602793
 30
0.0
 10
19.83037437783073
 20
13.24069887426972
 30
0.0
 10
19.89815099803234
 20
14.00157089286954
 30
0.0
 10
19.93292312873846
 20
14.32057743914854
 30
0.0
 10
19.98438480496452
 20
14.75572705311497
 30
0.0
 10
20.0
 20
14.87153889243178
 30
0.0
 10
20.0
 20
14.87153889243178
 30
0.0
  0
SPLINE
  5
2109
330
20FF
100
AcDbEntity
  8
0
100
AcDbSpline
210
0.0
220
0.0
230
1.0
 70
     8
 71
     3
 72
    16
 73
    12
 74
     0
 42
0.000000001
 43
0.0000000001
 40
0.0
 40
0.0
 40
0.0
 40
0.0
 40
0.1854267130171539
 40
0.1854267130171539
 40
0.3708534260343077
 40
0.3708534260343077
 40
0.493538304270369
 40
0.493538304270369
 40
0.5548807433883996
 40
0.5548807433883996
 40
0.6162231824955845
 40
0.6162231824955845
 40
0.6162231825064302
 40
0.6162231825064302
 10
-19.73417087186589
 20
10.54117394285333
 30
0.0
 10
-19.73417087186589
 20
9.923084899462823
 30
0.0
 10
-19.74998880382228
 20
9.254804593225674
 30
0.0
 10
-19.80744310443341
 20
7.986008810905404
 30
0.0
 10
-19.84851357812731
 20
7.385021870463237
 30
0.0
 10
-19.91438557307392
 20
6.569082405169917
 30
0.0
 10
-19.94327068654348
 20
6.253749304729926
 30
0.0
 10
-19.9756549408274
 20
5.919222956737235
 30
0.0
 10
-19.98460819121614
 20
5.830135188701131
 30
0.0
 10
-19.9967911303077
 20
5.710058629846784
 30
0.0
 10
-19.99999999999887
 20
5.679150737017594
 30
0.0
 10
-20.0
 20
5.679150737006665
 30
0.0
  0
SPLINE
  5
210A
330
20FF
100
AcDbEntity
  8
0
100
AcDbSpline
210
0.0
220
0.0
230
1.0
 70
     8
 71
     3
 72
    14
 73
    10
 74
     0
 42
0.000000001
 43
0.0000000001
 40
1.809966218394624
 40
1.809966218394624
 40
1.809966218395453
 40
1.809966218395453
 40
1.929851229045613
 40
1.929851229045613
 40
2.049736239696603
 40
2.049736239696603
 40
2.218611155736495
 40
2.218611155736495
 40
2.387486071776387
 40
2.387486071776387
 40
2.387486071776387
 40
2.387486071776387
 10
-20.0
 20
14.87153889243178
 30
0.0
 10
-19.99999999999982
 20
14.87153889243042
 30
0.0
 10
-19.98682445939174
 20
14.77344070682767
 30
0.0
 10
-19.94179905890961
 20
14.39789157939694
 30
0.0
 10
-19.91077232504662
 20
14.12088326141002
 30
0.0
 10
-19.84231926459207
 20
13.39493451800378
 30
0.0
 10
-19.80167973203851
 20
12.8603756216034
 30
0.0
 10
-19.74747632147677
 20
11.71487997633052
 30
0.0
 10
-19.73417087186589
 20
11.10409032965297
 30
0.0
 10
-19.73417087186589
 20
10.54117394285333
 30
0.0
  0
LINE
  5
210B
330
20FF
100
AcDbEntity
  8
0
100
AcDbLine
 10
-20.0
 20
0.9999660171779805
 30
0.0
 11
20.0
 21
0.9999660171779805
 31
0.0
  0
LINE
  5
210C
330
20FF
100
AcDbEntity
  8
0
100
AcDbLine
 10
19.00000000000001
 20
-0.0000339828220204
 30
0.0
 11
-19.0
 21
-0.0000339828220204
 31
0.0
  0
LINE
  5
210D
330
20FF
100
AcDbEntity
  8
0
100
AcDbLine
 10
20.0
 20
23.99996601717798
 30
0.0
 11
-20.0
 21
23.99996601717798
 31
0.0
  0
LINE
  5
210E
330
20FF
100
AcDbEntity
  8
0
100
AcDbLine
 10
-19.0
 20
24.99996601717799
 30
0.0
 11
19.00000000000001
 21
24.99996601717799
 31
0.0
  0
LINE
  5
210F
330
20FF
100
AcDbEntity
  8
0
100
AcDbLine
 10
-19.0
 20
-0.0000339828220203
 30
0.0
 11
-20.0
 21
0.9999660171779803
 31
0.0
  0
LINE
  5
2110
330
20FF
100
AcDbEntity
  8
0
100
AcDbLine
 10
19.00000000000001
 20
-0.0000339828220203
 30
0.0
 11
20.0
 21
0.9999660171779803
 31
0.0
  0
LINE
  5
2111
330
20FF
100
AcDbEntity
  8
0
100
AcDbLine
 10
19.0
 20
24.99996601717799
 30
0.0
 11
20.0
 21
23.99996601717798
 31
0.0
  0
LINE
  5
2112
330
20FF
100
AcDbEntity
  8
0
100
AcDbLine
 10
-19.0
 20
24.99996601717799
 30
0.0
 11
-20.0
 21
23.99996601717798
 31
0.0
  0
LINE
  5
2113
330
20FF
100
AcDbEntity
  8
0
100
AcDbLine
 10
20.0
 20
23.99996601717798
 30
0.0
 11
20.0
 21
14.87153889243178
 31
0.0
  0
LINE
  5
2114
330
20FF
100
AcDbEntity
  8
0
100
AcDbLine
 10
20.0
 20
5.679150737006669
 30
0.0
 11
20.0
 21
0.9999660171779801
 31
0.0
  0
LINE
  5
2115
330
20FF
100
AcDbEntity
  8
0
100
AcDbLine
 10
-20.0
 20
23.99996601717798
 30
0.0
 11
-20.0
 21
14.87153889243178
 31
0.0
  0
LINE
  5
2116
330
20FF
100
AcDbEntity
  8
0
100
AcDbLine
 10
-20.0
 20
5.679150737006667
 30
0.0
 11
-20.0
 21
0.9999660171779801
 31
0.0
  0
ENDBLK
  5
2101
330
20FF
100
AcDbEntity
  8
0
100
AcDbBlockEnd
  0
BLOCK
  5
2118
330
2117
100
AcDbEntity
  8
0
100
AcDbBlockBegin
  2
CCS40-C-Right
 70
     0
 10
0.0
 20
0.0
 30
0.0
  3
CCS40-C-Right
  1

  0
SPLINE
  5
211A
330
2117
100
AcDbEntity
  8
0
100
AcDbSpline
210
0.0
220
0.0
230
1.0
 70
     8
 71
     3
 72
     8
 73
     4
 74
     0
 42
0.000000001
 43
0.0000000001
 40
0.5744969913481523
 40
0.5744969913481523
 40
0.5744969913481523
 40
0.5744969913481523
 40
0.6306515730353129
 40
0.6306515730353129
 40
0.6306515730353129
 40
0.6306515730353129
 10
-0.5731506522767861
 20
14.80869650155771
 30
0.0
 10
-0.3793040071596353
 20
14.78649814996913
 30
0.0
 10
-0.1871819389572025
 20
14.77534481471924
 30
0.0
 10
-0.0000000000000006
 20
14.77534481471924
 30
0.0
  0
SPLINE
  5
211B
330
2117
100
AcDbEntity
  8
0
100
AcDbSpline
210
0.0
220
0.0
230
1.0
 70
     8
 71
     3
 72
     8
 73
     4
 74
     0
 42
0.000000001
 43
0.0000000001
 40
0.6306515730353129
 40
0.6306515730353129
 40
0.6306515730353129
 40
0.6306515730353129
 40
0.6868061547224738
 40
0.6868061547224738
 40
0.6868061547224738
 40
0.6868061547224738
 10
-0.0000000000000006
 20
14.77534481471924
 30
0.0
 10
0.1871819389572025
 20
14.77534481471924
 30
0.0
 10
0.3793040071596363
 20
14.78649814996913
 30
0.0
 10
0.5731506522767881
 20
14.80869650155771
 30
0.0
  0
SPLINE
  5
211C
330
2117
100
AcDbEntity
  8
0
100
AcDbSpline
210
0.0
220
0.0
230
1.0
 70
     8
 71
     3
 72
    16
 73
    12
 74
     0
 42
0.000000001
 43
0.0000000001
 40
0.0
 40
0.0
 40
0.0
 40
0.0
 40
0.1854267130171538
 40
0.1854267130171538
 40
0.3708534260343076
 40
0.3708534260343076
 40
0.4935383042703691
 40
0.4935383042703691
 40
0.5548807433883997
 40
0.5548807433883997
 40
0.6162231824955847
 40
0.6162231824955847
 40
0.6162231825064304
 40
0.6162231825064304
 10
-19.73417087186589
 20
10.54117394285334
 30
0.0
 10
-19.73417087186589
 20
9.923084899462827
 30
0.0
 10
-19.74998880382228
 20
9.254804593225678
 30
0.0
 10
-19.80744310443341
 20
7.986008810905408
 30
0.0
 10
-19.84851357812732
 20
7.385021870463241
 30
0.0
 10
-19.91438557307393
 20
6.569082405169918
 30
0.0
 10
-19.94327068654349
 20
6.253749304729928
 30
0.0
 10
-19.97565494082741
 20
5.919222956737238
 30
0.0
 10
-19.98460819121614
 20
5.830135188701134
 30
0.0
 10
-19.99679113030771
 20
5.710058629846788
 30
0.0
 10
-19.99999999999887
 20
5.679150737017596
 30
0.0
 10
-20.0
 20
5.679150737006668
 30
0.0
  0
SPLINE
  5
211D
330
2117
100
AcDbEntity
  8
0
100
AcDbSpline
210
0.0
220
0.0
230
1.0
 70
     8
 71
     3
 72
    14
 73
    10
 74
     0
 42
0.000000001
 43
0.0000000001
 40
1.810084405313214
 40
1.810084405313214
 40
1.810084405314307
 40
1.810084405314307
 40
1.929969415964204
 40
1.929969415964204
 40
2.049854426615193
 40
2.049854426615193
 40
2.218729342655086
 40
2.218729342655086
 40
2.387604258694978
 40
2.387604258694978
 40
2.387604258694978
 40
2.387604258694978
 10
-20.0
 20
14.87153889243178
 30
0.0
 10
-19.99999999999976
 20
14.87153889242999
 30
0.0
 10
-19.9868244593917
 20
14.77344070682727
 30
0.0
 10
-19.94179905890961
 20
14.39789157939694
 30
0.0
 10
-19.91077232504662
 20
14.12088326141002
 30
0.0
 10
-19.84231926459207
 20
13.39493451800379
 30
0.0
 10
-19.80167973203852
 20
12.8603756216034
 30
0.0
 10
-19.74747632147678
 20
11.71487997633052
 30
0.0
 10
-19.73417087186589
 20
11.10409032965298
 30
0.0
 10
-19.73417087186589
 20
10.54117394285334
 30
0.0
  0
SPLINE
  5
211E
330
2117
100
AcDbEntity
  8
0
100
AcDbSpline
210
0.0
220
0.0
230
1.0
 70
    11
 71
     3
 72
    42
 73
    38
 74
     0
 42
0.000000001
 43
0.0000000001
 40
0.0
 40
0.0
 40
0.0
 40
0.0
 40
0.1854267130171537
 40
0.1854267130171537
 40
0.3708534260343075
 40
0.3708534260343075
 40
0.4935383042703689
 40
0.4935383042703689
 40
0.5548807433883996
 40
0.5548807433883996
 40
0.6162231825064302
 40
0.6162231825064302
 40
0.6775656216244608
 40
0.6775656216244608
 40
0.7389080607424914
 40
0.7389080607424914
 40
0.8615929389785526
 40
0.8615929389785526
 40
1.047019651995706
 40
1.047019651995706
 40
1.23244636501286
 40
1.23244636501286
 40
1.390779175149877
 40
1.390779175149877
 40
1.549111985286894
 40
1.549111985286894
 40
1.679598195300054
 40
1.679598195300054
 40
1.810084405313213
 40
1.810084405313213
 40
1.929969415964203
 40
1.929969415964203
 40
2.049854426615193
 40
2.049854426615193
 40
2.218729342655085
 40
2.218729342655085
 40
2.387604258694977
 40
2.387604258694977
 40
2.387604258694977
 40
2.387604258694977
 10
-11.65606900573413
 20
10.54117394285334
 30
0.0
 10
-11.65606900573413
 20
9.923084899462828
 30
0.0
 10
-11.73203024537046
 20
9.254804593225681
 30
0.0
 10
-12.0434918146343
 20
7.986008810905413
 30
0.0
 10
-12.27754641367338
 20
7.385021870463245
 30
0.0
 10
-12.76270905178265
 20
6.569082405169925
 30
0.0
 10
-13.00687077440279
 20
6.253749304729931
 30
0.0
 10
-13.41555499748493
 20
5.91922295673724
 30
0.0
 10
-13.55882634701724
 20
5.830135188701134
 30
0.0
 10
-13.84982244008427
 20
5.710058629836173
 30
0.0
 10
-13.99755010814801
 20
5.679150737006672
 30
0.0
 10
-14.28672113931389
 20
5.679150737006672
 30
0.0
 10
-14.42991078034042
 20
5.710058629836172
 30
0.0
 10
-14.70367759571307
 20
5.830135188701135
 30
0.0
 10
-14.83428713711831
 20
5.91922295673724
 30
0.0
 10
-15.19717310858478
 20
6.253749304729931
 30
0.0
 10
-15.40048511198559
 20
6.569082405169918
 30
0.0
 10
-15.79249068146079
 20
7.385021870463239
 30
0.0
 10
-15.96846285958886
 20
7.986008810905406
 30
0.0
 10
-16.19867177771179
 20
9.254804593225676
 30
0.0
 10
-16.25226308344669
 20
9.923084899462823
 30
0.0
 10
-16.25226308344669
 20
11.06894997664339
 30
0.0
 10
-16.21279847570548
 20
11.64257901060009
 30
0.0
 10
-16.02416602753241
 20
12.72856033602793
 30
0.0
 10
-15.87432797734146
 20
13.24069887426971
 30
0.0
 10
-15.5079289656912
 20
14.00157089286954
 30
0.0
 10
-15.28610588263457
 20
14.32057743914854
 30
0.0
 10
-14.75745661225261
 20
14.75572705311498
 30
0.0
 10
-14.44969457023641
 20
14.87153889243178
 30
0.0
 10
-13.85956394375116
 20
14.87153889243178
 30
0.0
 10
-13.55446432147605
 20
14.77344070682898
 30
0.0
 10
-12.99039801363035
 20
14.39789157939694
 30
0.0
 10
-12.73182260962738
 20
14.12088326141002
 30
0.0
 10
-12.23913160876824
 20
13.39493451800379
 30
0.0
 10
-12.01114230810392
 20
12.86037562160341
 30
0.0
 10
-11.71969981896766
 20
11.71487997633053
 30
0.0
 10
-11.65606900573413
 20
11.10409032965298
 30
0.0
 10
-11.65606900573413
 20
10.54117394285334
 30
0.0
  0
ELLIPSE
  5
211F
330
2117
100
AcDbEntity
  8
0
100
AcDbEllipse
 10
0.000000000000001
 20
15.65922829120241
 30
0.0
 11
-3.25
 21
0.0000000000002376
 31
0.0
210
0.0
220
0.0
230
1.0
 40
0.7071067811865476
 41
0.8710228296564332
 42
2.270569823933618
  0
SPLINE
  5
2120
330
2117
100
AcDbEntity
  8
0
100
AcDbSpline
210
0.0
220
0.0
230
1.0
 70
    11
 71
     3
 72
    42
 73
    38
 74
     0
 42
0.000000001
 43
0.0000000001
 40
0.0
 40
0.0
 40
0.0
 40
0.0
 40
0.1854267130171538
 40
0.1854267130171538
 40
0.3708534260343076
 40
0.3708534260343076
 40
0.4935383042703691
 40
0.4935383042703691
 40
0.5548807433883997
 40
0.5548807433883997
 40
0.6162231825064304
 40
0.6162231825064304
 40
0.677565621624461
 40
0.677565621624461
 40
0.7389080607424918
 40
0.7389080607424918
 40
0.8615929389785531
 40
0.8615929389785531
 40
1.047019651995706
 40
1.047019651995706
 40
1.23244636501286
 40
1.23244636501286
 40
1.401321281052753
 40
1.401321281052753
 40
1.570196197092645
 40
1.570196197092645
 40
1.690081207743635
 40
1.690081207743635
 40
1.809966218394625
 40
1.809966218394625
 40
1.929851229045614
 40
1.929851229045614
 40
2.049736239696604
 40
2.049736239696604
 40
2.218611155736496
 40
2.218611155736496
 40
2.387486071776389
 40
2.387486071776389
 40
2.387486071776389
 40
2.387486071776389
 10
3.250000000000001
 20
10.54117394285334
 30
0.0
 10
3.250000000000001
 20
9.92308489946283
 30
0.0
 10
3.158392516648022
 20
9.254804593225681
 30
0.0
 10
2.775373641848214
 20
7.986008810905412
 30
0.0
 10
2.485440927245263
 20
7.385021870463245
 30
0.0
 10
1.865189339421036
 20
6.569082405169925
 30
0.0
 10
1.54877763334881
 20
6.253749304729932
 30
0.0
 10
1.00319511662206
 20
5.919222956737241
 30
0.0
 10
0.8095320814027092
 20
5.830135188701138
 30
0.0
 10
0.4101843990823745
 20
5.710058629836177
 30
0.0
 10
0.2044747970601046
 20
5.679150737006671
 30
0.0
 10
-0.2044747970600999
 20
5.679150737006671
 30
0.0
 10
-0.4101843990823694
 20
5.710058629836177
 30
0.0
 10
-0.8095320814027038
 20
5.830135188701138
 30
0.0
 10
-1.003195116622055
 20
5.919222956737241
 30
0.0
 10
-1.548777633348806
 20
6.253749304729932
 30
0.0
 10
-1.865189339421032
 20
6.569082405169925
 30
0.0
 10
-2.485440927245258
 20
7.385021870463245
 30
0.0
 10
-2.77537364184821
 20
7.986008810905412
 30
0.0
 10
-3.158392516648018
 20
9.254804593225681
 30
0.0
 10
-3.249999999999996
 20
9.92308489946283
 30
0.0
 10
-3.249999999999996
 20
11.10409032965298
 30
0.0
 10
-3.173317890551198
 20
11.71487997633052
 30
0.0
 10
-2.81535938032466
 20
12.86037562160341
 30
0.0
 10
-2.533573351802776
 20
13.39493451800379
 30
0.0
 10
-1.905256116783161
 20
14.12088326141003
 30
0.0
 10
-1.570602007409038
 20
14.39789157939695
 30
0.0
 10
-0.8179171852582236
 20
14.77344070682899
 30
0.0
 10
-0.3996167021699638
 20
14.87153889243178
 30
0.0
 10
0.3996167021699673
 20
14.87153889243178
 30
0.0
 10
0.8179171852582268
 20
14.77344070682898
 30
0.0
 10
1.570602007409042
 20
14.39789157939694
 30
0.0
 10
1.905256116783165
 20
14.12088326141003
 30
0.0
 10
2.53357335180278
 20
13.39493451800379
 30
0.0
 10
2.815359380324662
 20
12.86037562160341
 30
0.0
 10
3.173317890551202
 20
11.71487997633053
 30
0.0
 10
3.250000000000001
 20
11.10409032965298
 30
0.0
 10
3.250000000000001
 20
10.54117394285334
 30
0.0
  0
SPLINE
  5
2121
330
2117
100
AcDbEntity
  8
0
100
AcDbSpline
210
0.0
220
0.0
230
1.0
 70
    11
 71
     3
 72
    42
 73
    38
 74
     0
 42
0.000000001
 43
0.0000000001
 40
0.0
 40
0.0
 40
0.0
 40
0.0
 40
0.1854267130171536
 40
0.1854267130171536
 40
0.3708534260343073
 40
0.3708534260343073
 40
0.4935383042703686
 40
0.4935383042703686
 40
0.5548807433883994
 40
0.5548807433883994
 40
0.61622318250643
 40
0.61622318250643
 40
0.6775656216244606
 40
0.6775656216244606
 40
0.7389080607424913
 40
0.7389080607424913
 40
0.8615929389785526
 40
0.8615929389785526
 40
1.047019651995706
 40
1.047019651995706
 40
1.232446365012859
 40
1.232446365012859
 40
1.390779175149877
 40
1.390779175149877
 40
1.549111985286893
 40
1.549111985286893
 40
1.679598195300053
 40
1.679598195300053
 40
1.810084405313213
 40
1.810084405313213
 40
1.929969415964203
 40
1.929969415964203
 40
2.049854426615193
 40
2.049854426615193
 40
2.218729342655085
 40
2.218729342655085
 40
2.387604258694977
 40
2.387604258694977
 40
2.387604258694977
 40
2.387604258694977
 10
16.25226308344669
 20
10.54117394285333
 30
0.0
 10
16.25226308344669
 20
9.923084899462823
 30
0.0
 10
16.19867177771179
 20
9.254804593225676
 30
0.0
 10
15.96846285958886
 20
7.986008810905406
 30
0.0
 10
15.79249068146079
 20
7.385021870463239
 30
0.0
 10
15.40048511198559
 20
6.56908240516992
 30
0.0
 10
15.19717310858479
 20
6.253749304729931
 30
0.0
 10
14.83428713711831
 20
5.91922295673724
 30
0.0
 10
14.70367759571307
 20
5.830135188701134
 30
0.0
 10
14.42991078034042
 20
5.710058629836173
 30
0.0
 10
14.28672113931389
 20
5.679150737006669
 30
0.0
 10
13.99755010814801
 20
5.679150737006669
 30
0.0
 10
13.84982244008427
 20
5.710058629836173
 30
0.0
 10
13.55882634701725
 20
5.830135188701134
 30
0.0
 10
13.41555499748493
 20
5.91922295673724
 30
0.0
 10
13.0068707744028
 20
6.253749304729931
 30
0.0
 10
12.76270905178265
 20
6.569082405169921
 30
0.0
 10
12.27754641367339
 20
7.385021870463241
 30
0.0
 10
12.04349181463431
 20
7.986008810905408
 30
0.0
 10
11.73203024537047
 20
9.254804593225676
 30
0.0
 10
11.65606900573413
 20
9.923084899462825
 30
0.0
 10
11.65606900573413
 20
11.06894997664339
 30
0.0
 10
11.71198300192368
 20
11.64257901060009
 30
0.0
 10
11.96877120095139
 20
12.72856033602793
 30
0.0
 10
12.17005641472268
 20
13.24069887426972
 30
0.0
 10
12.63230604187387
 20
14.00157089286954
 30
0.0
 10
12.9033043437677
 20
14.32057743914854
 30
0.0
 10
13.504731414611
 20
14.75572705311498
 30
0.0
 10
13.83457667722549
 20
14.87153889243178
 30
0.0
 10
14.42470730371074
 20
14.87153889243178
 30
0.0
 10
14.71117389776627
 20
14.77344070682898
 30
0.0
 10
15.21156467359863
 20
14.39789157939694
 30
0.0
 10
15.42626164977643
 20
14.12088326141002
 30
0.0
 10
15.82214540415479
 20
13.39493451800379
 30
0.0
 10
15.99266172671337
 20
12.86037562160341
 30
0.0
 10
16.20744901750635
 20
11.71487997633053
 30
0.0
 10
16.25226308344669
 20
11.10409032965298
 30
0.0
 10
16.25226308344669
 20
10.54117394285333
 30
0.0
  0
SPLINE
  5
2122
330
2117
100
AcDbEntity
  8
0
100
AcDbSpline
210
0.0
220
0.0
230
1.0
 70
     8
 71
     3
 72
    24
 73
    20
 74
     0
 42
0.000000001
 43
0.0000000001
 40
0.6162231825064302
 40
0.6162231825064302
 40
0.6162231825064302
 40
0.6162231825064302
 40
0.6775656216244608
 40
0.6775656216244608
 40
0.7389080607424914
 40
0.7389080607424914
 40
0.8615929389785526
 40
0.8615929389785526
 40
1.047019651995706
 40
1.047019651995706
 40
1.23244636501286
 40
1.23244636501286
 40
1.401321281052752
 40
1.401321281052752
 40
1.570196197092644
 40
1.570196197092644
 40
1.690081207743634
 40
1.690081207743634
 40
1.809966218394624
 40
1.809966218394624
 40
1.809966218394624
 40
1.809966218394624
 10
20.0
 20
5.679150737006665
 30
0.0
 10
20.0
 20
5.679150737006665
 30
0.0
 10
19.99679113030878
 20
5.710058629836169
 30
0.0
 10
19.98460819121614
 20
5.830135188701131
 30
0.0
 10
19.9756549408274
 20
5.919222956737235
 30
0.0
 10
19.94327068654348
 20
6.253749304729926
 30
0.0
 10
19.91438557307392
 20
6.569082405169917
 30
0.0
 10
19.84851357812731
 20
7.385021870463237
 30
0.0
 10
19.80744310443341
 20
7.986008810905405
 30
0.0
 10
19.74998880382228
 20
9.254804593225676
 30
0.0
 10
19.73417087186589
 20
9.923084899462825
 30
0.0
 10
19.73417087186589
 20
11.10409032965297
 30
0.0
 10
19.74747632147677
 20
11.71487997633052
 30
0.0
 10
19.80167973203851
 20
12.8603756216034
 30
0.0
 10
19.84231926459207
 20
13.39493451800378
 30
0.0
 10
19.91077232504662
 20
14.12088326141002
 30
0.0
 10
19.94179905890961
 20
14.39789157939694
 30
0.0
 10
19.9868244593919
 20
14.77344070682898
 30
0.0
 10
20.0
 20
14.87153889243178
 30
0.0
 10
20.0
 20
14.87153889243178
 30
0.0
  0
LINE
  5
2123
330
2117
100
AcDbEntity
  8
0
100
AcDbLine
 10
-20.0
 20
0.9999660171779805
 30
0.0
 11
20.0
 21
0.9999660171779805
 31
0.0
  0
LINE
  5
2124
330
2117
100
AcDbEntity
  8
0
100
AcDbLine
 10
19.0
 20
-0.0000339828220204
 30
0.0
 11
-19.00000000000001
 21
-0.0000339828220204
 31
0.0
  0
LINE
  5
2125
330
2117
100
AcDbEntity
  8
0
100
AcDbLine
 10
20.0
 20
23.99996601717798
 30
0.0
 11
-20.0
 21
23.99996601717798
 31
0.0
  0
LINE
  5
2126
330
2117
100
AcDbEntity
  8
0
100
AcDbLine
 10
-19.00000000000001
 20
24.99996601717799
 30
0.0
 11
19.0
 21
24.99996601717799
 31
0.0
  0
LINE
  5
2127
330
2117
100
AcDbEntity
  8
0
100
AcDbLine
 10
-19.00000000000001
 20
-0.0000339828220203
 30
0.0
 11
-20.0
 21
0.9999660171779803
 31
0.0
  0
LINE
  5
2128
330
2117
100
AcDbEntity
  8
0
100
AcDbLine
 10
19.0
 20
-0.0000339828220203
 30
0.0
 11
20.0
 21
0.9999660171779803
 31
0.0
  0
LINE
  5
2129
330
2117
100
AcDbEntity
  8
0
100
AcDbLine
 10
19.0
 20
24.99996601717799
 30
0.0
 11
20.0
 21
23.99996601717798
 31
0.0
  0
LINE
  5
212A
330
2117
100
AcDbEntity
  8
0
100
AcDbLine
 10
-19.0
 20
24.99996601717799
 30
0.0
 11
-20.0
 21
23.99996601717798
 31
0.0
  0
LINE
  5
212B
330
2117
100
AcDbEntity
  8
0
100
AcDbLine
 10
20.0
 20
23.99996601717798
 30
0.0
 11
20.0
 21
14.87153889243178
 31
0.0
  0
LINE
  5
212C
330
2117
100
AcDbEntity
  8
0
100
AcDbLine
 10
20.0
 20
5.679150737006667
 30
0.0
 11
20.0
 21
0.9999660171779801
 31
0.0
  0
LINE
  5
212D
330
2117
100
AcDbEntity
  8
0
100
AcDbLine
 10
-20.0
 20
23.99996601717798
 30
0.0
 11
-20.0
 21
14.87153889243178
 31
0.0
  0
LINE
  5
212E
330
2117
100
AcDbEntity
  8
0
100
AcDbLine
 10
-20.0
 20
5.679150737006669
 30
0.0
 11
-20.0
 21
0.9999660171779801
 31
0.0
  0
ENDBLK
  5
2119
330
2117
100
AcDbEntity
  8
0
100
AcDbBlockEnd
  0
BLOCK
  5
2130
330
212F
100
AcDbEntity
  8
0
100
AcDbBlockBegin
  2
CCS40-C-Top
 70
     0
 10
0.0
 20
0.0
 30
0.0
  3
CCS40-C-Top
  1

  0
ELLIPSE
  5
2132
330
212F
100
AcDbEntity
  8
0
100
AcDbEllipse
 10
-10.33501088558574
 20
10.33515510839148
 30
0.0
 11
-2.298097038856279
 21
-2.298097038856279
 31
0.0
210
0.0
220
0.0
230
1.0
 40
0.7071067811865478
 41
0.0395361995568938
 42
3.1020564540329
  0
SPLINE
  5
2133
330
212F
100
AcDbEntity
  8
0
100
AcDbSpline
210
0.0
220
0.0
230
1.0
 70
    28
 71
     2
 72
     6
 73
     3
 74
     0
 42
0.000000001
 43
0.0000000001
 40
-1.212753852938382
 40
-1.212753852938382
 40
-1.212753852938382
 40
-1.169218536832119
 40
-1.169218536832119
 40
-1.169218536832119
 10
-5.071239728025842
 20
12.24340391409888
 30
0.0
 41
1.391514801391488
 10
-5.033784437891411
 20
12.15297884467371
 30
0.0
 41
1.391753549983656
 10
-4.994850277521431
 20
12.0589834666689
 30
0.0
 41
1.391470628279507
  0
SPLINE
  5
2134
330
212F
100
AcDbEntity
  8
0
100
AcDbSpline
210
0.0
220
0.0
230
1.0
 70
    28
 71
     2
 72
     6
 73
     3
 74
     0
 42
0.000000001
 43
0.0000000001
 40
1.102188853394089
 40
1.102188853394089
 40
1.102188853394089
 40
1.144407223000462
 40
1.144407223000462
 40
1.144407223000462
 10
-12.24325968766327
 20
5.071383949328045
 30
0.0
 41
1.359571465862131
 10
-12.15283461998207
 20
5.033928659915989
 30
0.0
 41
1.359804733774447
 10
-12.05883924386308
 20
4.994994500327141
 30
0.0
 41
1.359528306769913
  0
ELLIPSE
  5
2135
330
212F
100
AcDbEntity
  8
0
100
AcDbEllipse
 10
-9.335010885585738
 20
9.335155108391479
 30
0.0
 11
-3.712310601229372
 21
-3.712310601229373
 31
0.0
210
0.0
220
0.0
230
1.0
 40
0.7071067811865476
 41
0.3129564329255911
 42
2.828636220664225
  0
LINE
  5
2136
330
212F
100
AcDbEntity
  8
0
100
AcDbLine
 10
-4.994850277521432
 20
12.05898346666889
 30
0.0
 11
-3.619592616221891
 21
8.738817769002045
 31
0.0
  0
LINE
  5
2137
330
212F
100
AcDbEntity
  8
0
100
AcDbLine
 10
-12.05883924386309
 20
4.994994500327154
 30
0.0
 11
-8.738673547334244
 21
3.619736839498993
 31
0.0
  0
SPLINE
  5
2138
330
212F
100
AcDbEntity
  8
0
100
AcDbSpline
210
0.0
220
0.0
230
1.0
 70
     8
 71
     3
 72
    12
 73
     8
 74
     0
 42
0.000000001
 43
0.0000000001
 40
0.6306515730353128
 40
0.6306515730353128
 40
0.6306515730353128
 40
0.6306515730353128
 40
0.7876730459318564
 40
0.7876730459318564
 40
0.9446945188284001
 40
0.9446945188284001
 40
1.016010953321406
 40
1.016010953321406
 40
1.016010953321406
 40
1.016010953321406
 10
-5.710010885585736
 20
5.710155108391482
 30
0.0
 10
-6.080114046509224
 20
5.340051947467996
 30
0.0
 10
-6.499141692714204
 20
4.964247069378187
 30
0.0
 10
-7.348974426579037
 20
4.314010761512428
 30
0.0
 10
-7.781451319855658
 20
4.040599806340778
 30
0.0
 10
-8.361441279892947
 20
3.760680839397572
 30
0.0
 10
-8.548931857718585
 20
3.68284640538514
 30
0.0
 10
-8.738673547334252
 20
3.619736839498996
 30
0.0
  0
SPLINE
  5
2139
330
212F
100
AcDbEntity
  8
0
100
AcDbSpline
210
0.0
220
0.0
230
1.0
 70
     8
 71
     3
 72
    12
 73
     8
 74
     0
 42
0.000000001
 43
0.0000000001
 40
0.245292193123418
 40
0.245292193123418
 40
0.245292193123418
 40
0.245292193123418
 40
0.316608627242225
 40
0.316608627242225
 40
0.473630100138769
 40
0.473630100138769
 40
0.6306515730353128
 40
0.6306515730353128
 40
0.6306515730353128
 40
0.6306515730353128
 10
-3.619592613709202
 20
8.738817766564153
 30
0.0
 10
-3.682702179417007
 20
8.549076077968026
 30
0.0
 10
-3.760536617050557
 20
8.36158550174821
 30
0.0
 10
-4.040455583535031
 20
7.781595542661404
 30
0.0
 10
-4.313866538706684
 20
7.349118649384784
 30
0.0
 10
-4.964102846572442
 20
6.49928591551995
 30
0.0
 10
-5.339907724662252
 20
6.080258269314969
 30
0.0
 10
-5.710010885585736
 20
5.710155108391482
 30
0.0
  0
SPLINE
  5
213A
330
212F
100
AcDbEntity
  8
0
100
AcDbSpline
210
0.0
220
0.0
230
1.0
 70
     8
 71
     3
 72
    12
 73
     8
 74
     0
 42
0.000000001
 43
0.0000000001
 40
0.2452921927492187
 40
0.2452921927492187
 40
0.2452921927492187
 40
0.2452921927492187
 40
0.316608627242225
 40
0.316608627242225
 40
0.4736301001387689
 40
0.4736301001387689
 40
0.6306515730353127
 40
0.6306515730353127
 40
0.6306515730353127
 40
0.6306515730353127
 10
-8.738673547334252
 20
3.619736839498996
 30
0.0
 10
-8.649131113929053
 20
3.440944002102133
 30
0.0
 10
-8.571592511039971
 20
3.253330887013028
 30
0.0
 10
-8.359410276985761
 20
2.645283453542272
 30
0.0
 10
-8.246933673495938
 20
2.146145369147317
 30
0.0
 10
-8.105797687171392
 20
1.085436377491608
 30
0.0
 10
-8.0752345747355
 20
0.5234049096551416
 30
0.0
 10
-8.0752345747355
 20
-0.0000000000000044
 30
0.0
  0
ELLIPSE
  5
213B
330
212F
100
AcDbEntity
  8
0
100
AcDbEllipse
 10
-13.20175873833797
 20
-0.0000000000000074
 30
0.0
 11
0.0000000000000047
 21
-5.249999999999996
 31
0.0
210
0.0
220
0.0
230
1.0
 40
0.7071067811865476
 41
0.3129564329255837
 42
2.828636220664202
  0
LINE
  5
213C
330
212F
100
AcDbEntity
  8
0
100
AcDbLine
 10
-12.05883924386309
 20
-4.994994500327168
 30
0.0
 11
-8.738673547334261
 21
-3.61973683949901
 31
0.0
  0
SPLINE
  5
213D
330
212F
100
AcDbEntity
  8
0
100
AcDbSpline
210
0.0
220
0.0
230
1.0
 70
     8
 71
     3
 72
    12
 73
     8
 74
     0
 42
0.000000001
 43
0.0000000001
 40
0.6306515730353127
 40
0.6306515730353127
 40
0.6306515730353127
 40
0.6306515730353127
 40
0.7876730459318565
 40
0.7876730459318565
 40
0.9446945188284004
 40
0.9446945188284004
 40
1.016010953321407
 40
1.016010953321407
 40
1.016010953321407
 40
1.016010953321407
 10
-8.0752345747355
 20
-0.0000000000000044
 30
0.0
 10
-8.0752345747355
 20
-0.5234049096551506
 30
0.0
 10
-8.105797687171392
 20
-1.085436377491618
 30
0.0
 10
-8.246933673495938
 20
-2.146145369147327
 30
0.0
 10
-8.359410276985759
 20
-2.645283453542281
 30
0.0
 10
-8.57159251103997
 20
-3.253330887013039
 30
0.0
 10
-8.649131113929055
 20
-3.440944002102142
 30
0.0
 10
-8.738673547334258
 20
-3.619736839499008
 30
0.0
  0
SPLINE
  5
213E
330
212F
100
AcDbEntity
  8
0
100
AcDbSpline
210
0.0
220
0.0
230
1.0
 70
     8
 71
     3
 72
    12
 73
     8
 74
     0
 42
0.000000001
 43
0.0000000001
 40
0.2452921927492183
 40
0.2452921927492183
 40
0.2452921927492183
 40
0.2452921927492183
 40
0.3166086272422249
 40
0.3166086272422249
 40
0.4736301001387688
 40
0.4736301001387688
 40
0.6306515730353127
 40
0.6306515730353127
 40
0.6306515730353127
 40
0.6306515730353127
 10
-8.738673547334258
 20
-3.619736839499008
 30
0.0
 10
-8.548931857718587
 20
-3.682846405385152
 30
0.0
 10
-8.361441279892947
 20
-3.760680839397581
 30
0.0
 10
-7.781451319855657
 20
-4.040599806340786
 30
0.0
 10
-7.348974426579037
 20
-4.314010761512438
 30
0.0
 10
-6.499141692714202
 20
-4.964247069378196
 30
0.0
 10
-6.08011404650922
 20
-5.340051947468005
 30
0.0
 10
-5.710010885585734
 20
-5.710155108391491
 30
0.0
  0
ELLIPSE
  5
213F
330
212F
100
AcDbEntity
  8
0
100
AcDbEllipse
 10
-9.335010885585731
 20
-9.335155108391491
 30
0.0
 11
3.712310601229374
 21
-3.712310601229369
 31
0.0
210
0.0
220
0.0
230
0.9999999999999998
 40
0.7071067811865479
 41
0.3129564329255791
 42
2.828636220664208
  0
LINE
  5
2140
330
212F
100
AcDbEntity
  8
0
100
AcDbLine
 10
-4.994850277521413
 20
-12.05898346666887
 30
0.0
 11
-3.619592616693244
 21
-8.738817770140004
 31
0.0
  0
SPLINE
  5
2141
330
212F
100
AcDbEntity
  8
0
100
AcDbSpline
210
0.0
220
0.0
230
1.0
 70
     8
 71
     3
 72
    12
 73
     8
 74
     0
 42
0.000000001
 43
0.0000000001
 40
0.6306515730353127
 40
0.6306515730353127
 40
0.6306515730353127
 40
0.6306515730353127
 40
0.7876730459318564
 40
0.7876730459318564
 40
0.9446945188284001
 40
0.9446945188284001
 40
1.016010953321406
 40
1.016010953321406
 40
1.016010953321406
 40
1.016010953321406
 10
-5.710010885585734
 20
-5.710155108391491
 30
0.0
 10
-5.339907724662248
 20
-6.080258269314978
 30
0.0
 10
-4.964102846572436
 20
-6.499285915519958
 30
0.0
 10
-4.313866538706678
 20
-7.349118649384791
 30
0.0
 10
-4.040455583535027
 20
-7.781595542661411
 30
0.0
 10
-3.760536616591822
 20
-8.361585502698703
 30
0.0
 10
-3.682702182579392
 20
-8.549076080524345
 30
0.0
 10
-3.619592616693248
 20
-8.738817770140013
 30
0.0
  0
SPLINE
  5
2142
330
212F
100
AcDbEntity
  8
0
100
AcDbSpline
210
0.0
220
0.0
230
1.0
 70
     8
 71
     3
 72
    12
 73
     8
 74
     0
 42
0.000000001
 43
0.0000000001
 40
0.2452921927492181
 40
0.2452921927492181
 40
0.2452921927492181
 40
0.2452921927492181
 40
0.316608627242225
 40
0.316608627242225
 40
0.4736301001387689
 40
0.4736301001387689
 40
0.6306515730353127
 40
0.6306515730353127
 40
0.6306515730353127
 40
0.6306515730353127
 10
-3.619592616693248
 20
-8.738817770140013
 30
0.0
 10
-3.440799779296383
 20
-8.649275336734811
 30
0.0
 10
-3.253186664207279
 20
-8.571736733845726
 30
0.0
 10
-2.645139230736521
 20
-8.359554499791515
 30
0.0
 10
-2.146001146341567
 20
-8.247077896301691
 30
0.0
 10
-1.085292154685859
 20
-8.105941909977147
 30
0.0
 10
-0.5232606868493907
 20
-8.075378797541254
 30
0.0
 10
0.0001442228057552
 20
-8.075378797541254
 30
0.0
  0
ELLIPSE
  5
2143
330
212F
100
AcDbEntity
  8
0
100
AcDbEllipse
 10
0.0001442228057577
 20
-13.20190296114372
 30
0.0
 11
5.249999999999996
 21
0.0000000000000064
 31
0.0
210
0.0
220
0.0
230
1.0
 40
0.7071067811865474
 41
0.3129564329255833
 42
2.828636220664212
  0
LINE
  5
2144
330
212F
100
AcDbEntity
  8
0
100
AcDbLine
 10
4.995138723132916
 20
-12.05898346666884
 30
0.0
 11
3.619881062304761
 21
-8.738817770140016
 31
0.0
  0
SPLINE
  5
2145
330
212F
100
AcDbEntity
  8
0
100
AcDbSpline
210
0.0
220
0.0
230
1.0
 70
     8
 71
     3
 72
    12
 73
     8
 74
     0
 42
0.000000001
 43
0.0000000001
 40
0.6306515730353127
 40
0.6306515730353127
 40
0.6306515730353127
 40
0.6306515730353127
 40
0.7876730459318565
 40
0.7876730459318565
 40
0.9446945188284004
 40
0.9446945188284004
 40
1.016010953321407
 40
1.016010953321407
 40
1.016010953321407
 40
1.016010953321407
 10
0.0001442228057552
 20
-8.075378797541254
 30
0.0
 10
0.5235491324609015
 20
-8.075378797541254
 30
0.0
 10
1.085580600297369
 20
-8.105941909977147
 30
0.0
 10
2.146289591953078
 20
-8.247077896301691
 30
0.0
 10
2.645427676348031
 20
-8.359554499791514
 30
0.0
 10
3.253475109818789
 20
-8.571736733845723
 30
0.0
 10
3.441088224907893
 20
-8.64927533673481
 30
0.0
 10
3.619881062304759
 20
-8.738817770140013
 30
0.0
  0
SPLINE
  5
2146
330
212F
100
AcDbEntity
  8
0
100
AcDbSpline
210
0.0
220
0.0
230
1.0
 70
     8
 71
     3
 72
    12
 73
     8
 74
     0
 42
0.000000001
 43
0.0000000001
 40
0.2452921927492183
 40
0.2452921927492183
 40
0.2452921927492183
 40
0.2452921927492183
 40
0.3166086272422249
 40
0.3166086272422249
 40
0.4736301001387688
 40
0.4736301001387688
 40
0.6306515730353127
 40
0.6306515730353127
 40
0.6306515730353127
 40
0.6306515730353127
 10
3.619881062304759
 20
-8.738817770140013
 30
0.0
 10
3.682990628190903
 20
-8.549076080524342
 30
0.0
 10
3.760825062203331
 20
-8.361585502698702
 30
0.0
 10
4.040744029146536
 20
-7.781595542661411
 30
0.0
 10
4.314154984318188
 20
-7.349118649384791
 30
0.0
 10
4.964391292183946
 20
-6.499285915519957
 30
0.0
 10
5.340196170273755
 20
-6.080258269314975
 30
0.0
 10
5.710299331197241
 20
-5.710155108391488
 30
0.0
  0
ELLIPSE
  5
2147
330
212F
100
AcDbEntity
  8
0
100
AcDbEllipse
 10
9.335299331197241
 20
-9.335155108391484
 30
0.0
 11
3.712310601229369
 21
3.712310601229375
 31
0.0
210
0.0
220
0.0
230
0.9999999999999998
 40
0.7071067811865475
 41
0.3129564329255805
 42
2.828636220664208
  0
LINE
  5
2148
330
212F
100
AcDbEntity
  8
0
100
AcDbLine
 10
12.05912768947461
 20
-4.99499450032716
 30
0.0
 11
8.73896199294576
 21
-3.619736839498997
 31
0.0
  0
SPLINE
  5
2149
330
212F
100
AcDbEntity
  8
0
100
AcDbSpline
210
0.0
220
0.0
230
1.0
 70
     8
 71
     3
 72
    12
 73
     8
 74
     0
 42
0.000000001
 43
0.0000000001
 40
0.6306515730353127
 40
0.6306515730353127
 40
0.6306515730353127
 40
0.6306515730353127
 40
0.7876730459318564
 40
0.7876730459318564
 40
0.9446945188284001
 40
0.9446945188284001
 40
1.016010953321407
 40
1.016010953321407
 40
1.016010953321407
 40
1.016010953321407
 10
5.710299331197241
 20
-5.710155108391488
 30
0.0
 10
6.080402492120727
 20
-5.340051947468003
 30
0.0
 10
6.499430138325709
 20
-4.964247069378192
 30
0.0
 10
7.349262872190541
 20
-4.314010761512434
 30
0.0
 10
7.781739765467161
 20
-4.040599806340782
 30
0.0
 10
8.361729725504455
 20
-3.760680839397576
 30
0.0
 10
8.549220303330095
 20
-3.682846405385145
 30
0.0
 10
8.738961992945766
 20
-3.619736839499
 30
0.0
  0
SPLINE
  5
214A
330
212F
100
AcDbEntity
  8
0
100
AcDbSpline
210
0.0
220
0.0
230
1.0
 70
     8
 71
     3
 72
    12
 73
     8
 74
     0
 42
0.000000001
 43
0.0000000001
 40
0.2452921927492184
 40
0.2452921927492184
 40
0.2452921927492184
 40
0.2452921927492184
 40
0.3166086272422252
 40
0.3166086272422252
 40
0.473630100138769
 40
0.473630100138769
 40
0.6306515730353129
 40
0.6306515730353129
 40
0.6306515730353129
 40
0.6306515730353129
 10
8.738961992945766
 20
-3.619736839499
 30
0.0
 10
8.649419559540564
 20
-3.440944002102134
 30
0.0
 10
8.571880956651474
 20
-3.253330887013035
 30
0.0
 10
8.359698722597265
 20
-2.645283453542277
 30
0.0
 10
8.247222119107442
 20
-2.146145369147323
 30
0.0
 10
8.106086132782897
 20
-1.085436377491614
 30
0.0
 10
8.075523020347004
 20
-0.5234049096551466
 30
0.0
 10
8.075523020347004
 20
-0.0000000000000006
 30
0.0
  0
ELLIPSE
  5
214B
330
212F
100
AcDbEntity
  8
0
100
AcDbEllipse
 10
13.20204718394947
 20
0.0000000000000007
 30
0.0
 11
-0.0000000000000014
 21
5.249999999999998
 31
0.0
210
0.0
220
0.0
230
1.0
 40
0.7071067811865471
 41
0.3129564329255791
 42
2.828636220664212
  0
LINE
  5
214C
330
212F
100
AcDbEntity
  8
0
100
AcDbLine
 10
12.05912768947462
 20
4.99499450032717
 30
0.0
 11
8.738961992945753
 21
3.619736839498997
 31
0.0
  0
SPLINE
  5
214D
330
212F
100
AcDbEntity
  8
0
100
AcDbSpline
210
0.0
220
0.0
230
1.0
 70
     8
 71
     3
 72
    12
 73
     8
 74
     0
 42
0.000000001
 43
0.0000000001
 40
0.6306515730353129
 40
0.6306515730353129
 40
0.6306515730353129
 40
0.6306515730353129
 40
0.7876730459318568
 40
0.7876730459318568
 40
0.9446945188284006
 40
0.9446945188284006
 40
1.016010953321407
 40
1.016010953321407
 40
1.016010953321407
 40
1.016010953321407
 10
8.075523020347004
 20
-0.0000000000000006
 30
0.0
 10
8.075523020347004
 20
0.5234049096551459
 30
0.0
 10
8.106086132782898
 20
1.085436377491612
 30
0.0
 10
8.247222119107442
 20
2.146145369147321
 30
0.0
 10
8.359698722597263
 20
2.645283453542276
 30
0.0
 10
8.571880956651472
 20
3.253330887013033
 30
0.0
 10
8.649419559540561
 20
3.440944002102134
 30
0.0
 10
8.738961992945764
 20
3.619736839498999
 30
0.0
  0
SPLINE
  5
214E
330
212F
100
AcDbEntity
  8
0
100
AcDbSpline
210
0.0
220
0.0
230
1.0
 70
     8
 71
     3
 72
    12
 73
     8
 74
     0
 42
0.000000001
 43
0.0000000001
 40
0.2452921927492179
 40
0.2452921927492179
 40
0.2452921927492179
 40
0.2452921927492179
 40
0.316608627242225
 40
0.316608627242225
 40
0.4736301001387689
 40
0.4736301001387689
 40
0.6306515730353127
 40
0.6306515730353127
 40
0.6306515730353127
 40
0.6306515730353127
 10
8.738961992945764
 20
3.619736839498999
 30
0.0
 10
8.549220303330093
 20
3.682846405385144
 30
0.0
 10
8.361729725504451
 20
3.760680839397575
 30
0.0
 10
7.781739765467159
 20
4.040599806340781
 30
0.0
 10
7.34926287219054
 20
4.314010761512434
 30
0.0
 10
6.499430138325708
 20
4.964247069378192
 30
0.0
 10
6.080402492120725
 20
5.340051947468
 30
0.0
 10
5.710299331197239
 20
5.710155108391487
 30
0.0
  0
ELLIPSE
  5
214F
330
212F
100
AcDbEntity
  8
0
100
AcDbEllipse
 10
9.335299331197235
 20
9.335155108391486
 30
0.0
 11
-3.712310601229373
 21
3.712310601229373
 31
0.0
210
0.0
220
0.0
230
1.0
 40
0.7071067811865472
 41
0.3129564329255799
 42
2.828636220664215
  0
LINE
  5
2150
330
212F
100
AcDbEntity
  8
0
100
AcDbLine
 10
3.619881061833389
 20
8.738817769002045
 30
0.0
 11
4.995138723132916
 21
12.05898346666887
 31
0.0
  0
SPLINE
  5
2151
330
212F
100
AcDbEntity
  8
0
100
AcDbSpline
210
0.0
220
0.0
230
1.0
 70
     8
 71
     3
 72
    12
 73
     8
 74
     0
 42
0.000000001
 43
0.0000000001
 40
0.6306515730353127
 40
0.6306515730353127
 40
0.6306515730353127
 40
0.6306515730353127
 40
0.7876730459318564
 40
0.7876730459318564
 40
0.9446945188284001
 40
0.9446945188284001
 40
1.016010952947206
 40
1.016010952947206
 40
1.016010952947206
 40
1.016010952947206
 10
5.710299331197239
 20
5.710155108391487
 30
0.0
 10
5.340196170273753
 20
6.080258269314972
 30
0.0
 10
4.964391292183943
 20
6.499285915519955
 30
0.0
 10
4.314154984318186
 20
7.349118649384788
 30
0.0
 10
4.040744029146534
 20
7.781595542661406
 30
0.0
 10
3.760825062662059
 20
8.361585501748212
 30
0.0
 10
3.682990625028508
 20
8.549076077968031
 30
0.0
 10
3.619881059320703
 20
8.738817766564157
 30
0.0
  0
SPLINE
  5
2152
330
212F
100
AcDbEntity
  8
0
100
AcDbSpline
210
0.0
220
0.0
230
1.0
 70
     8
 71
     3
 72
    12
 73
     8
 74
     0
 42
0.000000001
 43
0.0000000001
 40
2.229626229330338
 40
2.229626229330338
 40
2.229626229330338
 40
2.229626229330338
 40
2.471678342213159
 40
2.471678342213159
 40
2.71373045509598
 40
2.71373045509598
 40
2.901139763833303
 40
2.901139763833303
 40
2.901139763833303
 40
2.901139763833303
 10
-10.96001088558574
 20
10.96015510839148
 30
0.0
 10
-10.38948858418582
 20
11.53067740979139
 30
0.0
 10
-9.670324693861722
 20
12.00509569348343
 30
0.0
 10
-8.147187668994394
 20
12.59089659995692
 30
0.0
 10
-7.343842326205524
 20
12.7032877359579
 30
0.0
 10
-6.080436050362822
 20
12.61247975942591
 30
0.0
 10
-5.538072359520096
 20
12.47353566832308
 30
0.0
 10
-5.071239726340712
 20
12.24340391479689
 30
0.0
  0
SPLINE
  5
2153
330
212F
100
AcDbEntity
  8
0
100
AcDbSpline
210
0.0
220
0.0
230
1.0
 70
     8
 71
     3
 72
    12
 73
     8
 74
     0
 42
0.000000001
 43
0.0000000001
 40
1.558112694371607
 40
1.558112694371607
 40
1.558112694371607
 40
1.558112694371607
 40
1.745522003564695
 40
1.745522003564695
 40
1.987574116447516
 40
1.987574116447516
 40
2.229626229330338
 40
2.229626229330338
 40
2.229626229330338
 40
2.229626229330338
 10
-12.24325968766327
 20
5.071383949328054
 30
0.0
 10
-12.47339144217786
 20
5.538216583284572
 30
0.0
 10
-12.6123355365238
 20
6.080580271827765
 30
0.0
 10
-12.70314351315216
 20
7.343986549011257
 30
0.0
 10
-12.59075237715118
 20
8.147331891800128
 30
0.0
 10
-12.00495147067769
 20
9.670468916667459
 30
0.0
 10
-11.53053318698565
 20
10.38963280699156
 30
0.0
 10
-10.96001088558574
 20
10.96015510839148
 30
0.0
  0
SPLINE
  5
2154
330
212F
100
AcDbEntity
  8
0
100
AcDbSpline
210
0.0
220
0.0
230
1.0
 70
     8
 71
     3
 72
    12
 73
     8
 74
     0
 42
0.000000001
 43
0.0000000001
 40
-0.9683230832597132
 40
-0.9683230832597132
 40
-0.9683230832597132
 40
-0.9683230832597132
 40
-0.7262709703768917
 40
-0.7262709703768917
 40
-0.4842188574940703
 40
-0.4842188574940703
 40
-0.2968095483009811
 40
-0.2968095483009811
 40
-0.2968095483009811
 40
-0.2968095483009811
 10
-15.49985577719424
 20
-0.0000000000000092
 30
0.0
 10
-15.49985577719424
 20
0.8068403762760622
 30
0.0
 10
-15.3267944990791
 20
1.650830425426254
 30
0.0
 10
-14.66399777351174
 20
3.142074737778879
 30
0.0
 10
-14.17541936840265
 20
3.789598211711076
 30
0.0
 10
-13.2178452863528
 20
4.618750421641434
 30
0.0
 10
-12.73608793299672
 20
4.904011152361846
 30
0.0
 10
-12.24325968766327
 20
5.071383949328054
 30
0.0
  0
SPLINE
  5
2155
330
212F
100
AcDbEntity
  8
0
100
AcDbSpline
210
0.0
220
0.0
230
1.0
 70
     8
 71
     3
 72
    12
 73
     8
 74
     0
 42
0.000000001
 43
0.0000000001
 40
-1.639836618218444
 40
-1.639836618218444
 40
-1.639836618218444
 40
-1.639836618218444
 40
-1.452427309025355
 40
-1.452427309025355
 40
-1.210375196142534
 40
-1.210375196142534
 40
-0.9683230832597132
 40
-0.9683230832597132
 40
-0.9683230832597132
 40
-0.9683230832597132
 10
-12.24325968766326
 20
-5.071383949328059
 30
0.0
 10
-12.73608793299672
 20
-4.904011152361854
 30
0.0
 10
-13.2178452863528
 20
-4.61875042164145
 30
0.0
 10
-14.17541936840265
 20
-3.789598211711094
 30
0.0
 10
-14.66399777351173
 20
-3.142074737778898
 30
0.0
 10
-15.32679449907909
 20
-1.650830425426273
 30
0.0
 10
-15.49985577719424
 20
-0.8068403762760805
 30
0.0
 10
-15.49985577719424
 20
-0.0000000000000092
 30
0.0
  0
SPLINE
  5
2156
330
212F
100
AcDbEntity
  8
0
100
AcDbSpline
210
0.0
220
0.0
230
1.0
 70
    28
 71
     2
 72
     6
 73
     3
 74
     0
 42
0.000000001
 43
0.0000000001
 40
1.172904947315594
 40
1.172904947315594
 40
1.172904947315594
 40
1.216440262548221
 40
1.216440262548221
 40
1.216440262548221
 10
-12.24325968766325
 20
-5.071383949328057
 30
0.0
 41
1.391514801401072
 10
-12.15283461998206
 20
-5.033928659916004
 30
0.0
 41
1.39175354997798
 10
-12.05883924386309
 20
-4.994994500327166
 30
0.0
 41
1.391470628279508
  0
ELLIPSE
  5
2157
330
212F
100
AcDbEntity
  8
0
100
AcDbEllipse
 10
-14.61597230071106
 20
-0.0000000000000066
 30
0.0
 11
0.0000000000000008
 21
-3.25
 31
0.0
210
0.0
220
0.0
230
1.0
 40
0.7071067811865474
 41
0.0395361995568915
 42
3.102056454032899
  0
SPLINE
  5
2158
330
212F
100
AcDbEntity
  8
0
100
AcDbSpline
210
0.0
220
0.0
230
1.0
 70
     8
 71
     3
 72
    12
 73
     8
 74
     0
 42
0.000000001
 43
0.0000000001
 40
2.229626229330337
 40
2.229626229330337
 40
2.229626229330337
 40
2.229626229330337
 40
2.471678342213158
 40
2.471678342213158
 40
2.71373045509598
 40
2.71373045509598
 40
2.901139764289069
 40
2.901139764289069
 40
2.901139764289069
 40
2.901139764289069
 10
-10.96001088558573
 20
-10.96015510839149
 30
0.0
 10
-11.53053318698564
 20
-10.38963280699157
 30
0.0
 10
-12.00495147067768
 20
-9.670468916667475
 30
0.0
 10
-12.59075237715117
 20
-8.147331891800147
 30
0.0
 10
-12.70314351315216
 20
-7.343986549011277
 30
0.0
 10
-12.61233553652379
 20
-6.080580271827782
 30
0.0
 10
-12.47339144217785
 20
-5.538216583284581
 30
0.0
 10
-12.24325968766326
 20
-5.071383949328059
 30
0.0
  0
SPLINE
  5
2159
330
212F
100
AcDbEntity
  8
0
100
AcDbSpline
210
0.0
220
0.0
230
1.0
 70
     8
 71
     3
 72
    12
 73
     8
 74
     0
 42
0.000000001
 43
0.0000000001
 40
1.558112694371606
 40
1.558112694371606
 40
1.558112694371606
 40
1.558112694371606
 40
1.745522003564695
 40
1.745522003564695
 40
1.987574116447516
 40
1.987574116447516
 40
2.229626229330337
 40
2.229626229330337
 40
2.229626229330337
 40
2.229626229330337
 10
-5.071239726522302
 20
-12.24340391046902
 30
0.0
 10
-5.538072360478819
 20
-12.47353566498361
 30
0.0
 10
-6.080436049022015
 20
-12.61247975932955
 30
0.0
 10
-7.343842326205506
 20
-12.70328773595791
 30
0.0
 10
-8.147187668994376
 20
-12.59089659995693
 30
0.0
 10
-9.670324693861712
 20
-12.00509569348344
 30
0.0
 10
-10.38948858418581
 20
-11.53067740979141
 30
0.0
 10
-10.96001088558573
 20
-10.96015510839149
 30
0.0
  0
SPLINE
  5
215A
330
212F
100
AcDbEntity
  8
0
100
AcDbSpline
210
0.0
220
0.0
230
1.0
 70
    28
 71
     2
 72
     6
 73
     3
 74
     0
 42
0.000000001
 43
0.0000000001
 40
1.102188853394089
 40
1.102188853394089
 40
1.102188853394089
 40
1.144407223000453
 40
1.144407223000453
 40
1.144407223000453
 10
-5.071239726522294
 20
-12.24340391046901
 30
0.0
 41
1.359571465862128
 10
-5.033784437110248
 20
-12.15297884278784
 30
0.0
 41
1.359804733774444
 10
-4.994850277521407
 20
-12.05898346666887
 30
0.0
 41
1.35952830676991
  0
ELLIPSE
  5
215B
330
212F
100
AcDbEntity
  8
0
100
AcDbEllipse
 10
-10.33501088558573
 20
-10.33515510839149
 30
0.0
 11
2.298097038856279
 21
-2.298097038856278
 31
0.0
210
0.0
220
0.0
230
0.9999999999999998
 40
0.7071067811865478
 41
0.0395361995568934
 42
3.102056454032899
  0
SPLINE
  5
215C
330
212F
100
AcDbEntity
  8
0
100
AcDbSpline
210
0.0
220
0.0
230
1.0
 70
     8
 71
     3
 72
    12
 73
     8
 74
     0
 42
0.000000001
 43
0.0000000001
 40
-0.9683230832597132
 40
-0.9683230832597132
 40
-0.9683230832597132
 40
-0.9683230832597132
 40
-0.7262709703768917
 40
-0.7262709703768917
 40
-0.4842188574940703
 40
-0.4842188574940703
 40
-0.2968095483009809
 40
-0.2968095483009809
 40
-0.2968095483009809
 40
-0.2968095483009809
 10
0.0001442228057584
 20
-15.5
 30
0.0
 10
-0.806696153470313
 20
-15.5
 30
0.0
 10
-1.650686202620504
 20
-15.32693872188485
 30
0.0
 10
-3.14193051497313
 20
-14.66414199631749
 30
0.0
 10
-3.789453988905326
 20
-14.1755635912084
 30
0.0
 10
-4.618606198835685
 20
-13.21798950915856
 30
0.0
 10
-4.903866929556093
 20
-12.73623215580248
 30
0.0
 10
-5.071239726522302
 20
-12.24340391046902
 30
0.0
  0
SPLINE
  5
215D
330
212F
100
AcDbEntity
  8
0
100
AcDbSpline
210
0.0
220
0.0
230
1.0
 70
     8
 71
     3
 72
    12
 73
     8
 74
     0
 42
0.000000001
 43
0.0000000001
 40
-1.639836618218445
 40
-1.639836618218445
 40
-1.639836618218445
 40
-1.639836618218445
 40
-1.452427309025355
 40
-1.452427309025355
 40
-1.210375196142534
 40
-1.210375196142534
 40
-0.9683230832597132
 40
-0.9683230832597132
 40
-0.9683230832597132
 40
-0.9683230832597132
 10
5.071528172133809
 20
-12.24340391046901
 30
0.0
 10
4.904155375167603
 20
-12.73623215580247
 30
0.0
 10
4.6188946444472
 20
-13.21798950915856
 30
0.0
 10
3.789742434516844
 20
-14.1755635912084
 30
0.0
 10
3.142218960584649
 20
-14.66414199631749
 30
0.0
 10
1.650974648232024
 20
-15.32693872188485
 30
0.0
 10
0.8069845990818297
 20
-15.5
 30
0.0
 10
0.0001442228057584
 20
-15.5
 30
0.0
  0
SPLINE
  5
215E
330
212F
100
AcDbEntity
  8
0
100
AcDbSpline
210
0.0
220
0.0
230
1.0
 70
    28
 71
     2
 72
     6
 73
     3
 74
     0
 42
0.000000001
 43
0.0000000001
 40
1.172904947315594
 40
1.172904947315594
 40
1.172904947315594
 40
1.216440262548221
 40
1.216440262548221
 40
1.216440262548221
 10
5.071528172133808
 20
-12.243403910469
 30
0.0
 41
1.391514801401072
 10
5.034072882721753
 20
-12.15297884278781
 30
0.0
 41
1.39175354997798
 10
4.995138723132916
 20
-12.05898346666885
 30
0.0
 41
1.391470628279508
  0
ELLIPSE
  5
215F
330
212F
100
AcDbEntity
  8
0
100
AcDbEllipse
 10
0.0001442228057572
 20
-14.61611652351681
 30
0.0
 11
3.250000000000001
 21
0.0000000000000016
 31
0.0
210
0.0
220
0.0
230
1.0
 40
0.7071067811865471
 41
0.039536199556891
 42
3.1020564540329
  0
SPLINE
  5
2160
330
212F
100
AcDbEntity
  8
0
100
AcDbSpline
210
0.0
220
0.0
230
1.0
 70
     8
 71
     3
 72
    12
 73
     8
 74
     0
 42
0.000000001
 43
0.0000000001
 40
2.229626229330337
 40
2.229626229330337
 40
2.229626229330337
 40
2.229626229330337
 40
2.471678342213158
 40
2.471678342213158
 40
2.71373045509598
 40
2.71373045509598
 40
2.901139764289069
 40
2.901139764289069
 40
2.901139764289069
 40
2.901139764289069
 10
10.96029933119724
 20
-10.96015510839148
 30
0.0
 10
10.38977702979732
 20
-11.5306774097914
 30
0.0
 10
9.670613139473227
 20
-12.00509569348343
 30
0.0
 10
8.147476114605899
 20
-12.59089659995693
 30
0.0
 10
7.344130771817027
 20
-12.70328773595791
 30
0.0
 10
6.080724494633531
 20
-12.61247975932955
 30
0.0
 10
5.538360806090331
 20
-12.4735356649836
 30
0.0
 10
5.071528172133809
 20
-12.24340391046901
 30
0.0
  0
SPLINE
  5
2161
330
212F
100
AcDbEntity
  8
0
100
AcDbSpline
210
0.0
220
0.0
230
1.0
 70
     8
 71
     3
 72
    12
 73
     8
 74
     0
 42
0.000000001
 43
0.0000000001
 40
1.558112694371606
 40
1.558112694371606
 40
1.558112694371606
 40
1.558112694371606
 40
1.745522003564695
 40
1.745522003564695
 40
1.987574116447516
 40
1.987574116447516
 40
2.229626229330337
 40
2.229626229330337
 40
2.229626229330337
 40
2.229626229330337
 10
12.24354813327476
 20
-5.071383949328049
 30
0.0
 10
12.47367988778936
 20
-5.538216583284569
 30
0.0
 10
12.6126239821353
 20
-6.080580271827766
 30
0.0
 10
12.70343195876366
 20
-7.343986549011259
 30
0.0
 10
12.59104082276268
 20
-8.14733189180013
 30
0.0
 10
12.00523991628919
 20
-9.670468916667463
 30
0.0
 10
11.53082163259715
 20
-10.38963280699157
 30
0.0
 10
10.96029933119724
 20
-10.96015510839148
 30
0.0
  0
SPLINE
  5
2162
330
212F
100
AcDbEntity
  8
0
100
AcDbSpline
210
0.0
220
0.0
230
1.0
 70
    28
 71
     2
 72
     6
 73
     3
 74
     0
 42
0.000000001
 43
0.0000000001
 40
1.102188853394091
 40
1.102188853394091
 40
1.102188853394091
 40
1.144407223000457
 40
1.144407223000457
 40
1.144407223000457
 10
12.24354813327476
 20
-5.071383949328049
 30
0.0
 41
1.359571465862131
 10
12.15312306559359
 20
-5.033928659916002
 30
0.0
 41
1.359804733774447
 10
12.05912768947461
 20
-4.994994500327162
 30
0.0
 41
1.359528306769913
  0
ELLIPSE
  5
2163
330
212F
100
AcDbEntity
  8
0
100
AcDbEllipse
 10
10.33529933119724
 20
-10.33515510839148
 30
0.0
 11
2.298097038856279
 21
2.298097038856279
 31
0.0
210
0.0
220
0.0
230
1.0
 40
0.7071067811865474
 41
0.0395361995568931
 42
3.1020564540329
  0
SPLINE
  5
2164
330
212F
100
AcDbEntity
  8
0
100
AcDbSpline
210
0.0
220
0.0
230
1.0
 70
     8
 71
     3
 72
    12
 73
     8
 74
     0
 42
0.000000001
 43
0.0000000001
 40
-0.9683230832597132
 40
-0.9683230832597132
 40
-0.9683230832597132
 40
-0.9683230832597132
 40
-0.7262709703768922
 40
-0.7262709703768922
 40
-0.4842188574940707
 40
-0.4842188574940707
 40
-0.2968095483009814
 40
-0.2968095483009814
 40
-0.2968095483009814
 40
-0.2968095483009814
 10
15.50014422280575
 20
0.0000000000000018
 30
0.0
 10
15.50014422280575
 20
-0.8068403762760684
 30
0.0
 10
15.3270829446906
 20
-1.65083042542626
 30
0.0
 10
14.66428621912324
 20
-3.142074737778886
 30
0.0
 10
14.17570781401415
 20
-3.789598211711083
 30
0.0
 10
13.21813373196431
 20
-4.618750421641441
 30
0.0
 10
12.73637637860822
 20
-4.904011152361843
 30
0.0
 10
12.24354813327476
 20
-5.071383949328049
 30
0.0
  0
SPLINE
  5
2165
330
212F
100
AcDbEntity
  8
0
100
AcDbSpline
210
0.0
220
0.0
230
1.0
 70
     8
 71
     3
 72
    12
 73
     8
 74
     0
 42
0.000000001
 43
0.0000000001
 40
-1.639836618218444
 40
-1.639836618218444
 40
-1.639836618218444
 40
-1.639836618218444
 40
-1.452427309025355
 40
-1.452427309025355
 40
-1.210375196142534
 40
-1.210375196142534
 40
-0.9683230832597132
 40
-0.9683230832597132
 40
-0.9683230832597132
 40
-0.9683230832597132
 10
12.24354813327476
 20
5.071383949328051
 30
0.0
 10
12.73637637860822
 20
4.904011152361846
 30
0.0
 10
13.2181337319643
 20
4.618750421641442
 30
0.0
 10
14.17570781401415
 20
3.789598211711087
 30
0.0
 10
14.66428621912324
 20
3.142074737778892
 30
0.0
 10
15.3270829446906
 20
1.650830425426267
 30
0.0
 10
15.50014422280575
 20
0.8068403762760736
 30
0.0
 10
15.50014422280575
 20
0.0000000000000018
 30
0.0
  0
SPLINE
  5
2166
330
212F
100
AcDbEntity
  8
0
100
AcDbSpline
210
0.0
220
0.0
230
1.0
 70
    28
 71
     2
 72
     6
 73
     3
 74
     0
 42
0.000000001
 43
0.0000000001
 40
1.172904947315597
 40
1.172904947315597
 40
1.172904947315597
 40
1.216440262548214
 40
1.216440262548214
 40
1.216440262548214
 10
12.24354813327475
 20
5.07138394932805
 30
0.0
 41
1.391514801401071
 10
12.15312306559356
 20
5.033928659915996
 30
0.0
 41
1.391753549977979
 10
12.05912768947462
 20
4.994994500327169
 30
0.0
 41
1.391470628279508
  0
ELLIPSE
  5
2167
330
212F
100
AcDbEntity
  8
0
100
AcDbEllipse
 10
14.61626074632256
 20
0.000000000000001
 30
0.0
 11
-0.0000000000000007
 21
3.25
 31
0.0
210
0.0
220
0.0
230
1.0
 40
0.7071067811865474
 41
0.0395361995568925
 42
3.102056454032898
  0
ELLIPSE
  5
2168
330
212F
100
AcDbEntity
  8
0
100
AcDbEllipse
 10
10.33529933119723
 20
10.33515510839148
 30
0.0
 11
-2.298097038856279
 21
2.298097038856279
 31
0.0
210
0.0
220
0.0
230
1.0
 40
0.7071067811865474
 41
0.0395361995568923
 42
3.1020564540329
  0
SPLINE
  5
2169
330
212F
100
AcDbEntity
  8
0
100
AcDbSpline
210
0.0
220
0.0
230
1.0
 70
    28
 71
     2
 72
     6
 73
     3
 74
     0
 42
0.000000001
 43
0.0000000001
 40
-1.216440262548214
 40
-1.216440262548214
 40
-1.216440262548214
 40
-1.172904946441949
 40
-1.172904946441949
 40
-1.172904946441949
 10
4.995138723132916
 20
12.05898346666886
 30
0.0
 41
1.391470628279507
 10
5.034072883502998
 20
12.15297884467393
 30
0.0
 41
1.391753549983657
 10
5.071528173637346
 20
12.24340391409889
 30
0.0
 41
1.391514801391489
  0
SPLINE
  5
216A
330
212F
100
AcDbEntity
  8
0
100
AcDbSpline
210
0.0
220
0.0
230
1.0
 70
     8
 71
     3
 72
    12
 73
     8
 74
     0
 42
0.000000001
 43
0.0000000001
 40
2.229626229330337
 40
2.229626229330337
 40
2.229626229330337
 40
2.229626229330337
 40
2.471678342213158
 40
2.471678342213158
 40
2.71373045509598
 40
2.71373045509598
 40
2.901139764289069
 40
2.901139764289069
 40
2.901139764289069
 40
2.901139764289069
 10
10.96029933119723
 20
10.96015510839148
 30
0.0
 10
11.53082163259714
 20
10.38963280699157
 30
0.0
 10
12.00523991628918
 20
9.67046891666747
 30
0.0
 10
12.59104082276268
 20
8.14733189180014
 30
0.0
 10
12.70343195876366
 20
7.343986549011268
 30
0.0
 10
12.6126239821353
 20
6.080580271827775
 30
0.0
 10
12.47367988778935
 20
5.538216583284574
 30
0.0
 10
12.24354813327476
 20
5.071383949328051
 30
0.0
  0
SPLINE
  5
216B
330
212F
100
AcDbEntity
  8
0
100
AcDbSpline
210
0.0
220
0.0
230
1.0
 70
     8
 71
     3
 72
    12
 73
     8
 74
     0
 42
0.000000001
 43
0.0000000001
 40
1.558112694827372
 40
1.558112694827372
 40
1.558112694827372
 40
1.558112694827372
 40
1.745522003564695
 40
1.745522003564695
 40
1.987574116447516
 40
1.987574116447516
 40
2.229626229330337
 40
2.229626229330337
 40
2.229626229330337
 40
2.229626229330337
 10
5.071528171952208
 20
12.24340391479689
 30
0.0
 10
5.538360805131592
 20
12.47353566832309
 30
0.0
 10
6.080724495974311
 20
12.61247975942591
 30
0.0
 10
7.344130771817011
 20
12.70328773595791
 30
0.0
 10
8.147476114605881
 20
12.59089659995693
 30
0.0
 10
9.670613139473214
 20
12.00509569348344
 30
0.0
 10
10.38977702979731
 20
11.5306774097914
 30
0.0
 10
10.96029933119723
 20
10.96015510839148
 30
0.0
  0
SPLINE
  5
216C
330
212F
100
AcDbEntity
  8
0
100
AcDbSpline
210
0.0
220
0.0
230
1.0
 70
     8
 71
     3
 72
    12
 73
     8
 74
     0
 42
0.000000001
 43
0.0000000001
 40
3.443241506162718
 40
3.443241506162718
 40
3.443241506162718
 40
3.443241506162718
 40
3.514557939832276
 40
3.514557939832276
 40
3.671579412728819
 40
3.671579412728819
 40
3.828600885625363
 40
3.828600885625363
 40
3.828600885625363
 40
3.828600885625363
 10
3.61988105611052
 20
8.738817767037836
 30
0.0
 10
3.441088220577593
 20
8.649275334941572
 30
0.0
 10
3.253475107625999
 20
8.571736733080534
 30
0.0
 10
2.645427676348028
 20
8.359554499791512
 30
0.0
 10
2.146289591953073
 20
8.247077896301686
 30
0.0
 10
1.085580600297365
 20
8.10594190997714
 30
0.0
 10
0.5235491324608974
 20
8.075378797541251
 30
0.0
 10
0.0001442228057514
 20
8.075378797541251
 30
0.0
  0
SPLINE
  5
216D
330
212F
100
AcDbEntity
  8
0
100
AcDbSpline
210
0.0
220
0.0
230
1.0
 70
     8
 71
     3
 72
    12
 73
     8
 74
     0
 42
0.000000001
 43
0.0000000001
 40
2.229626229330337
 40
2.229626229330337
 40
2.229626229330337
 40
2.229626229330337
 40
2.471678342213158
 40
2.471678342213158
 40
2.71373045509598
 40
2.71373045509598
 40
2.901139763263222
 40
2.901139763263222
 40
2.901139763263222
 40
2.901139763263222
 10
0.0001442228057473
 20
15.49999999999999
 30
0.0
 10
0.8069845990818173
 20
15.49999999999999
 30
0.0
 10
1.650974648232008
 20
15.32693872188485
 30
0.0
 10
3.142218960584633
 20
14.66414199631748
 30
0.0
 10
3.789742434516831
 20
14.1755635912084
 30
0.0
 10
4.618894642466609
 20
13.2179895114459
 30
0.0
 10
4.90415537208235
 20
12.7362321610869
 30
0.0
 10
5.071528169384801
 20
12.24340391856342
 30
0.0
  0
SPLINE
  5
216E
330
212F
100
AcDbEntity
  8
0
100
AcDbSpline
210
0.0
220
0.0
230
1.0
 70
     8
 71
     3
 72
    12
 73
     8
 74
     0
 42
0.000000001
 43
0.0000000001
 40
0.6306515730353127
 40
0.6306515730353127
 40
0.6306515730353127
 40
0.6306515730353127
 40
0.7876730459318564
 40
0.7876730459318564
 40
0.9446945188284002
 40
0.9446945188284002
 40
1.016010952497958
 40
1.016010952497958
 40
1.016010952497958
 40
1.016010952497958
 10
0.0001442228057514
 20
8.075378797541251
 30
0.0
 10
-0.5232606868493947
 20
8.075378797541251
 30
0.0
 10
-1.085292154685863
 20
8.10594190997714
 30
0.0
 10
-2.146001146341572
 20
8.247077896301686
 30
0.0
 10
-2.645139230736525
 20
8.359554499791508
 30
0.0
 10
-3.253186662014497
 20
8.57173673308053
 30
0.0
 10
-3.440799774966092
 20
8.649275334941572
 30
0.0
 10
-3.619592610499018
 20
8.738817767037836
 30
0.0
  0
ELLIPSE
  5
216F
330
212F
100
AcDbEntity
  8
0
100
AcDbEllipse
 10
0.0001442228057496
 20
13.20190296114371
 30
0.0
 11
-5.249999999999995
 21
-0.0000000000000007
 31
0.0
210
0.0
220
0.0
230
1.0
 40
0.7071067811865474
 41
0.3129564329255694
 42
2.828636220664214
  0
ELLIPSE
  5
2170
330
212F
100
AcDbEntity
  8
0
100
AcDbEllipse
 10
0.0001442228057496
 20
14.61611652351681
 30
0.0
 11
-3.25
 21
0.0
 31
0.0
210
0.0
220
0.0
230
1.0
 40
0.7071067811865475
 41
0.0395361995568918
 42
3.1020564540329
  0
SPLINE
  5
2171
330
212F
100
AcDbEntity
  8
0
100
AcDbSpline
210
0.0
220
0.0
230
1.0
 70
     8
 71
     3
 72
    12
 73
     8
 74
     0
 42
0.000000001
 43
0.0000000001
 40
1.558112695397453
 40
1.558112695397453
 40
1.558112695397453
 40
1.558112695397453
 40
1.745522003564695
 40
1.745522003564695
 40
1.987574116447516
 40
1.987574116447516
 40
2.229626229330337
 40
2.229626229330337
 40
2.229626229330337
 40
2.229626229330337
 10
-5.071239723773306
 20
12.24340391856341
 30
0.0
 10
-4.903866926470856
 20
12.7362321610869
 30
0.0
 10
-4.618606196855112
 20
13.2179895114459
 30
0.0
 10
-3.789453988905339
 20
14.1755635912084
 30
0.0
 10
-3.141930514973142
 20
14.66414199631748
 30
0.0
 10
-1.650686202620517
 20
15.32693872188484
 30
0.0
 10
-0.8066961534703244
 20
15.49999999999999
 30
0.0
 10
0.0001442228057473
 20
15.49999999999999
 30
0.0
  0
ARC
  5
2172
330
212F
100
AcDbEntity
  8
0
100
AcDbCircle
 10
0.000144222805753
 20
-0.0000000000000022
 30
0.0
 40
8.075378797541253
100
AcDbArc
 50
45.00000000000002
 51
90.00000000000003
  0
ARC
  5
2173
330
212F
100
AcDbEntity
  8
0
100
AcDbCircle
 10
0.0001442228057514
 20
-0.0000000000000022
 30
0.0
 40
15.5
100
AcDbArc
 50
45.00000000000002
 51
90.00000000000003
  0
ARC
  5
2174
330
212F
100
AcDbEntity
  8
0
100
AcDbCircle
 10
0.000144222805753
 20
-0.0000000000000022
 30
0.0
 40
8.075378797541253
100
AcDbArc
 50
0.0
 51
45.00000000000002
  0
ARC
  5
2175
330
212F
100
AcDbEntity
  8
0
100
AcDbCircle
 10
0.0001442228057514
 20
-0.0000000000000022
 30
0.0
 40
15.5
100
AcDbArc
 50
0.0
 51
45.00000000000002
  0
ARC
  5
2176
330
212F
100
AcDbEntity
  8
0
100
AcDbCircle
 10
0.000144222805753
 20
-0.0000000000000022
 30
0.0
 40
8.075378797541253
100
AcDbArc
 50
315.0
 51
0.0
  0
ARC
  5
2177
330
212F
100
AcDbEntity
  8
0
100
AcDbCircle
 10
0.0001442228057514
 20
-0.0000000000000022
 30
0.0
 40
15.5
100
AcDbArc
 50
315.0000000000001
 51
0.0
  0
ARC
  5
2178
330
212F
100
AcDbEntity
  8
0
100
AcDbCircle
 10
0.000144222805753
 20
-0.0000000000000022
 30
0.0
 40
8.075378797541253
100
AcDbArc
 50
270.0
 51
315.0
  0
ARC
  5
2179
330
212F
100
AcDbEntity
  8
0
100
AcDbCircle
 10
0.0001442228057514
 20
-0.0000000000000022
 30
0.0
 40
15.5
100
AcDbArc
 50
270.0
 51
315.0
  0
ARC
  5
217A
330
212F
100
AcDbEntity
  8
0
100
AcDbCircle
 10
0.000144222805753
 20
-0.0000000000000022
 30
0.0
 40
8.075378797541253
100
AcDbArc
 50
225.0
 51
270.0
  0
ARC
  5
217B
330
212F
100
AcDbEntity
  8
0
100
AcDbCircle
 10
0.0001442228057514
 20
-0.0000000000000022
 30
0.0
 40
15.5
100
AcDbArc
 50
225.0
 51
270.0
  0
ARC
  5
217C
330
212F
100
AcDbEntity
  8
0
100
AcDbCircle
 10
0.000144222805753
 20
-0.0000000000000022
 30
0.0
 40
8.075378797541253
100
AcDbArc
 50
180.0
 51
225.0
  0
ARC
  5
217D
330
212F
100
AcDbEntity
  8
0
100
AcDbCircle
 10
0.0001442228057514
 20
-0.0000000000000022
 30
0.0
 40
15.5
100
AcDbArc
 50
180.0
 51
225.0
  0
ARC
  5
217E
330
212F
100
AcDbEntity
  8
0
100
AcDbCircle
 10
0.000144222805753
 20
-0.0000000000000022
 30
0.0
 40
8.075378797541253
100
AcDbArc
 50
135.0
 51
180.0
  0
ARC
  5
217F
330
212F
100
AcDbEntity
  8
0
100
AcDbCircle
 10
0.0001442228057514
 20
-0.0000000000000022
 30
0.0
 40
15.5
100
AcDbArc
 50
135.0
 51
180.0
  0
ARC
  5
2180
330
212F
100
AcDbEntity
  8
0
100
AcDbCircle
 10
0.000144222805753
 20
-0.0000000000000022
 30
0.0
 40
8.075378797541253
100
AcDbArc
 50
90.00000000000005
 51
135.0
  0
ARC
  5
2181
330
212F
100
AcDbEntity
  8
0
100
AcDbCircle
 10
0.0001442228057514
 20
-0.0000000000000022
 30
0.0
 40
15.5
100
AcDbArc
 50
90.00000000000005
 51
135.0
  0
CIRCLE
  5
2182
330
212F
100
AcDbEntity
  8
0
100
AcDbCircle
 10
0.0001442228057508
 20
-0.0000000000000022
 30
0.0
 40
17.5
  0
CIRCLE
  5
2183
330
212F
100
AcDbEntity
  8
0
100
AcDbCircle
 10
0.000144222805753
 20
-0.0000000000000022
 30
0.0
 40
6.919999999999999
  0
CIRCLE
  5
2184
330
212F
100
AcDbEntity
  8
0
100
AcDbCircle
 10
0.000144222805751
 20
-0.0000000000000022
 30
0.0
 40
20.0
  0
CIRCLE
  5
2185
330
212F
100
AcDbEntity
  8
0
100
AcDbCircle
 10
0.0001442228057508
 20
-0.0000000000000022
 30
0.0
 40
19.0
  0
ARC
  5
2186
330
212F
100
AcDbEntity
  8
0
100
AcDbCircle
 10
0.0001442228057522
 20
-0.0000000000000022
 30
0.0
 40
8.002499999999999
100
AcDbArc
 50
190.000000000049
 51
99.99999999999813
  0
ENDBLK
  5
2131
330
212F
100
AcDbEntity
  8
0
100
AcDbBlockEnd
  0
BLOCK
  5
2188
330
2187
100
AcDbEntity
  8
0
100
AcDbBlockBegin
  2
CCS40-C-Bottom
 70
     0
 10
0.0
 20
0.0
 30
0.0
  3
CCS40-C-Bottom
  1

  0
CIRCLE
  5
218A
330
2187
100
AcDbEntity
  8
0
100
AcDbCircle
 10
0.0001442228057561
 20
0.0000000000000022
 30
0.0
 40
20.0
  0
CIRCLE
  5
218B
330
2187
100
AcDbEntity
  8
0
100
AcDbCircle
 10
0.0001442228057563
 20
0.0000000000000022
 30
0.0
 40
19.0
  0
CIRCLE
  5
218C
330
2187
100
AcDbEntity
  8
0
100
AcDbCircle
 10
0.0001442228057563
 20
0.0000000000000022
 30
0.0
 40
6.920000000000001
  0
ARC
  5
218D
330
2187
100
AcDbEntity
  8
0
100
AcDbCircle
 10
0.0001442228057558
 20
0.0000000000000022
 30
0.0
 40
8.002499999999999
100
AcDbArc
 50
260.0000000000018
 51
169.9999999999509
  0
ENDBLK
  5
2189
330
2187
100
AcDbEntity
  8
0
100
AcDbBlockEnd
  0
BLOCK
  5
218F
330
218E
100
AcDbEntity
  8
0
100
AcDbBlockBegin
  2
CCS40-C-ISO
 70
     0
 10
0.0
 20
0.0
 30
0.0
  3
CCS40-C-ISO
  1

  0
ELLIPSE
  5
2191
330
218E
100
AcDbEntity
  8
0
100
AcDbEllipse
 10
0.0001019809239513
 20
11.01814565435426
 30
0.0
 11
3.25
 21
0.0000000000000011
 31
0.0
210
0.0
220
0.0
230
1.0
 40
0.9855985596534882
 41
0.0
 42
6.283185307179586
  0
SPLINE
  5
2192
330
218E
100
AcDbEntity
  8
0
100
AcDbSpline
210
0.0
220
0.0
230
1.0
 70
    12
 71
     2
 72
     6
 73
     3
 74
     0
 42
0.000000001
 43
0.0000000001
 40
-1.216440262548205
 40
-1.216440262548205
 40
-1.216440262548205
 40
-1.169218536832119
 40
-1.169218536832119
 40
-1.169218536832119
 10
5.07781987805682
 20
10.0416627420456
 30
0.0
 41
1.391470628279507
 10
5.037326715450014
 20
9.901683616650693
 30
0.0
 41
1.39177750674755
 10
4.995096481251137
 20
9.76329487449435
 30
0.0
 41
1.391470628279507
  0
ELLIPSE
  5
2193
330
218E
100
AcDbEntity
  8
0
100
AcDbEllipse
 10
0.0001019809239522
 20
11.35634961180578
 30
0.0
 11
5.249999999999998
 21
0.0000000000000044
 31
0.0
210
0.0
220
0.0
230
1.0
 40
0.9855985596534884
 41
0.011239336326284
 42
3.130353317263481
  0
SPLINE
  5
2194
330
218E
100
AcDbEntity
  8
0
100
AcDbSpline
210
0.0
220
0.0
230
1.0
 70
    12
 71
     2
 72
     6
 73
     3
 74
     0
 42
0.000000001
 43
0.0000000001
 40
1.098613957025901
 40
1.098613957025901
 40
1.098613957025901
 40
1.144407223000462
 40
1.144407223000462
 40
1.144407223000462
 10
-5.077615916208944
 20
10.04166274204571
 30
0.0
 41
1.359528306769913
 10
-5.037122753602117
 20
9.901683616650728
 30
0.0
 41
1.359828140597207
 10
-4.994892519403201
 20
9.763294874494244
 30
0.0
 41
1.359528306769913
  0
ELLIPSE
  5
2195
330
218E
100
AcDbEntity
  8
0
100
AcDbEllipse
 10
0.0001019809239545
 20
14.51353601288761
 30
0.0
 11
3.712310601229371
 21
-6.429910574805834
 31
0.0
210
0.0
220
0.0
230
1.0
 40
0.5773502691896258
 41
6.258549300532626
 42
6.755627037651465
  0
ELLIPSE
  5
2196
330
218E
100
AcDbEntity
  8
0
100
AcDbEllipse
 10
0.0001019809239545
 20
14.51353601288762
 30
0.0
 11
-3.712310601229377
 21
-6.429910574805837
 31
0.0
210
0.0
220
0.0
230
1.0
 40
0.5773502691896254
 41
5.810743576707729
 42
6.307821313702593
  0
SPLINE
  5
2197
330
218E
100
AcDbEntity
  8
0
100
AcDbSpline
210
0.0
220
0.0
230
1.0
 70
     8
 71
     3
 72
    12
 73
     8
 74
     0
 42
0.000000001
 43
0.0000000001
 40
0.6306515730353128
 40
0.6306515730353128
 40
0.6306515730353128
 40
0.6306515730353128
 40
0.7876730459318564
 40
0.7876730459318564
 40
0.9446945188284001
 40
0.9446945188284001
 40
1.016010953321406
 40
1.016010953321406
 40
1.016010953321406
 40
1.016010953321406
 10
0.0001019809239543
 20
6.520161131076505
 30
0.0
 10
-0.5233029287311926
 20
6.520161131076505
 30
0.0
 10
-1.085334396567658
 20
6.609011151714745
 30
0.0
 10
-2.146043388223367
 20
6.971446328356723
 30
0.0
 10
-2.645181472618322
 20
7.244328665820112
 30
0.0
 10
-3.253228906089077
 20
7.698062519832495
 30
0.0
 10
-3.440842021178178
 20
7.857670755530126
 30
0.0
 10
-3.619634858575041
 20
8.032779502736167
 30
0.0
  0
SPLINE
  5
2198
330
218E
100
AcDbEntity
  8
0
100
AcDbSpline
210
0.0
220
0.0
230
1.0
 70
     8
 71
     3
 72
    12
 73
     8
 74
     0
 42
0.000000001
 43
0.0000000001
 40
0.245292193123418
 40
0.245292193123418
 40
0.245292193123418
 40
0.245292193123418
 40
0.316608627242225
 40
0.316608627242225
 40
0.473630100138769
 40
0.473630100138769
 40
0.6306515730353128
 40
0.6306515730353128
 40
0.6306515730353128
 40
0.6306515730353128
 10
3.619838820004486
 20
8.032779497362476
 30
0.0
 10
3.441045983454651
 20
7.857670751236504
 30
0.0
 10
3.253432866940521
 20
7.698062519088921
 30
0.0
 10
2.64538543446623
 20
7.244328665820114
 30
0.0
 10
2.146247350071276
 20
6.971446328356723
 30
0.0
 10
1.085538358415567
 20
6.609011151714745
 30
0.0
 10
0.5235068905791001
 20
6.520161131076505
 30
0.0
 10
0.0001019809239543
 20
6.520161131076505
 30
0.0
  0
SPLINE
  5
2199
330
218E
100
AcDbEntity
  8
0
100
AcDbSpline
210
0.0
220
0.0
230
1.0
 70
     8
 71
     3
 72
    12
 73
     8
 74
     0
 42
0.000000001
 43
0.0000000001
 40
0.2452921927492187
 40
0.2452921927492187
 40
0.2452921927492187
 40
0.2452921927492187
 40
0.316608627242225
 40
0.316608627242225
 40
0.4736301001387689
 40
0.4736301001387689
 40
0.6306515730353127
 40
0.6306515730353127
 40
0.6306515730353127
 40
0.6306515730353127
 10
-3.619634858575041
 20
8.032779502736167
 30
0.0
 10
-3.682744424461186
 20
7.799820687984412
 30
0.0
 10
-3.760578858473623
 20
7.576731649959233
 30
0.0
 10
-4.040497825416827
 20
6.910643906340492
 30
0.0
 10
-4.31390878058848
 20
6.453009315427937
 30
0.0
 10
-4.964145088454238
 20
5.681407880819762
 30
0.0
 10
-5.339949966544045
 20
5.368277757039312
 30
0.0
 10
-5.710053127467531
 20
5.154598597452208
 30
0.0
  0
ELLIPSE
  5
219A
330
218E
100
AcDbEntity
  8
0
100
AcDbEllipse
 10
-9.335053127467533
 20
9.123881698130876
 30
0.0
 11
2.625000000000001
 21
-4.546633369868296
 31
0.0
210
0.0
220
0.0
230
0.9999999999999998
 40
0.8164965809277262
 41
0.1366123546130851
 42
1.257839893869306
  0
ELLIPSE
  5
219B
330
218E
100
AcDbEntity
  8
0
100
AcDbEllipse
 10
0.0001019809239522
 20
14.51353601288761
 30
0.0
 11
-12.33556227717923
 21
-8.5147432618486
 31
0.0
210
0.0
220
0.0
230
1.0
 40
0.3419987131196464
 41
0.0811326284251832
 42
0.5782103654200493
  0
SPLINE
  5
219C
330
218E
100
AcDbEntity
  8
0
100
AcDbSpline
210
0.0
220
0.0
230
1.0
 70
     8
 71
     3
 72
    12
 73
     8
 74
     0
 42
0.000000001
 43
0.0000000001
 40
0.6306515730353127
 40
0.6306515730353127
 40
0.6306515730353127
 40
0.6306515730353127
 40
0.7876730459318565
 40
0.7876730459318565
 40
0.9446945188284004
 40
0.9446945188284004
 40
1.016010953321407
 40
1.016010953321407
 40
1.016010953321407
 40
1.016010953321407
 10
-5.710053127467531
 20
5.154598597452208
 30
0.0
 10
-6.080156288391017
 20
4.940919437865101
 30
0.0
 10
-6.499183934595999
 20
4.795152789783281
 30
0.0
 10
-7.349016668460834
 20
4.700688959345273
 30
0.0
 10
-7.781493561737452
 20
4.750779010938535
 30
0.0
 10
-8.361483521774745
 20
4.920398104086527
 30
0.0
 10
-8.548974099600387
 20
4.990301675104255
 30
0.0
 10
-8.738715789216058
 20
5.077276749427108
 30
0.0
  0
SPLINE
  5
219D
330
218E
100
AcDbEntity
  8
0
100
AcDbSpline
210
0.0
220
0.0
230
1.0
 70
     8
 71
     3
 72
    12
 73
     8
 74
     0
 42
0.000000001
 43
0.0000000001
 40
0.2452921927492183
 40
0.2452921927492183
 40
0.2452921927492183
 40
0.2452921927492183
 40
0.3166086272422249
 40
0.3166086272422249
 40
0.4736301001387688
 40
0.4736301001387688
 40
0.6306515730353127
 40
0.6306515730353127
 40
0.6306515730353127
 40
0.6306515730353127
 10
-8.738715789216058
 20
5.077276749427108
 30
0.0
 10
-8.649173355810855
 20
4.850639257451194
 30
0.0
 10
-8.571634752921765
 20
4.627479472503967
 30
0.0
 10
-8.359452518867556
 20
3.94519273904563
 30
0.0
 10
-8.246975915377735
 20
3.449071291496406
 30
0.0
 10
-8.105839929053187
 20
2.555720392686968
 30
0.0
 10
-8.075276816617297
 20
2.160026973992434
 30
0.0
 10
-8.075276816617297
 20
1.857839008507864
 30
0.0
  0
ELLIPSE
  5
219E
330
218E
100
AcDbEntity
  8
0
100
AcDbEllipse
 10
-13.20180098021976
 20
3.734227383374142
 30
0.0
 11
-3.32039154317697
 21
4.066632513517643
 31
0.0
210
0.0
220
0.0
230
1.0
 40
0.408248290463863
 41
3.918666900468826
 42
4.86308015645966
  0
SPLINE
  5
219F
330
218E
100
AcDbEntity
  8
0
100
AcDbSpline
210
0.0
220
0.0
230
1.0
 70
     8
 71
     3
 72
     8
 73
     4
 74
     0
 42
0.000000001
 43
0.0000000001
 40
0.6306515730353127
 40
0.6306515730353127
 40
0.6306515730353127
 40
0.6306515730353127
 40
0.7524144395124451
 40
0.7524144395124451
 40
0.7524144395124451
 40
0.7524144395124451
 10
-8.075276816617297
 20
1.857839008507864
 30
0.0
 10
-8.075276816617297
 20
1.623506262714955
 30
0.0
 10
-8.093655280638387
 20
1.418580481969122
 30
0.0
 10
-8.134814925859528
 20
1.261087090917136
 30
0.0
  0
SPLINE
  5
21A0
330
218E
100
AcDbEntity
  8
0
100
AcDbSpline
210
0.0
220
0.0
230
1.0
 70
     8
 71
     3
 72
     8
 73
     4
 74
     0
 42
0.000000001
 43
0.0000000001
 40
0.5088887065581794
 40
0.5088887065581794
 40
0.5088887065581794
 40
0.5088887065581794
 40
0.6306515730353127
 40
0.6306515730353127
 40
0.6306515730353127
 40
0.6306515730353127
 10
8.135018887707447
 20
1.261087090917141
 30
0.0
 10
8.093859242486304
 20
1.418580481969131
 30
0.0
 10
8.075480778465211
 20
1.623506262714959
 30
0.0
 10
8.075480778465211
 20
1.857839008507871
 30
0.0
  0
ELLIPSE
  5
21A1
330
218E
100
AcDbEntity
  8
0
100
AcDbEllipse
 10
13.20200494206767
 20
3.734227383374151
 30
0.0
 11
-3.320391543176794
 21
-4.066632513517784
 31
0.0
210
0.0
220
0.0
230
1.0
 40
0.4082482904638629
 41
4.561697804309462
 42
5.506111060300009
  0
ELLIPSE
  5
21A2
330
218E
100
AcDbEntity
  8
0
100
AcDbEllipse
 10
0.000101980923956
 20
14.51353601288761
 30
0.0
 11
12.33556227717923
 21
-8.514743261848591
 31
0.0
210
0.0
220
0.0
230
1.0
 40
0.3419987131196465
 41
5.70497494163558
 42
6.202052678754411
  0
SPLINE
  5
21A3
330
218E
100
AcDbEntity
  8
0
100
AcDbSpline
210
0.0
220
0.0
230
1.0
 70
     8
 71
     3
 72
    12
 73
     8
 74
     0
 42
0.000000001
 43
0.0000000001
 40
0.6306515730353127
 40
0.6306515730353127
 40
0.6306515730353127
 40
0.6306515730353127
 40
0.7876730459318564
 40
0.7876730459318564
 40
0.9446945188284001
 40
0.9446945188284001
 40
1.016010952947206
 40
1.016010952947206
 40
1.016010952947206
 40
1.016010952947206
 10
8.075480778465211
 20
1.857839008507871
 30
0.0
 10
8.075480778465211
 20
2.160026973992441
 30
0.0
 10
8.106043890901103
 20
2.555720392686973
 30
0.0
 10
8.247179877225647
 20
3.44907129149641
 30
0.0
 10
8.359656480715468
 20
3.945192739045635
 30
0.0
 10
8.571838714421955
 20
4.627479471385839
 30
0.0
 10
8.649377313615037
 20
4.85063925573965
 30
0.0
 10
8.738919746425416
 20
5.077276746489873
 30
0.0
  0
ELLIPSE
  5
21A4
330
218E
100
AcDbEntity
  8
0
100
AcDbEllipse
 10
0.0001019809239545
 20
14.51353601288761
 30
0.0
 11
3.712310601229371
 21
-6.429910574805834
 31
0.0
210
0.0
220
0.0
230
1.0
 40
0.5773502691896258
 41
0.5285063430788908
 42
1.04699629735315
  0
SPLINE
  5
21A5
330
218E
100
AcDbEntity
  8
0
100
AcDbSpline
210
0.0
220
0.0
230
1.0
 70
     8
 71
     3
 72
    12
 73
     8
 74
     0
 42
0.000000001
 43
0.0000000001
 40
2.229626229330338
 40
2.229626229330338
 40
2.229626229330338
 40
2.229626229330338
 40
2.471678342213159
 40
2.471678342213159
 40
2.71373045509598
 40
2.71373045509598
 40
2.901139763833303
 40
2.901139763833303
 40
2.901139763833303
 40
2.901139763833303
 10
0.0001019809239503
 20
16.86894600743813
 30
0.0
 10
0.8069423572000225
 20
16.86894600743813
 30
0.0
 10
1.65093240635021
 20
16.68362606616551
 30
0.0
 10
3.142176718702835
 20
15.95871699252055
 30
0.0
 10
3.789700192635032
 20
15.41908511206977
 30
0.0
 10
4.618852401685453
 20
14.32164414522782
 30
0.0
 10
4.904113136325093
 20
13.75739923761672
 30
0.0
 10
5.071485933440685
 20
13.15339970925287
 30
0.0
  0
SPLINE
  5
21A6
330
218E
100
AcDbEntity
  8
0
100
AcDbSpline
210
0.0
220
0.0
230
1.0
 70
     8
 71
     3
 72
    12
 73
     8
 74
     0
 42
0.000000001
 43
0.0000000001
 40
1.558112694371607
 40
1.558112694371607
 40
1.558112694371607
 40
1.558112694371607
 40
1.745522003564695
 40
1.745522003564695
 40
1.987574116447516
 40
1.987574116447516
 40
2.229626229330338
 40
2.229626229330338
 40
2.229626229330338
 40
2.229626229330338
 10
-5.071281968404096
 20
13.15339970300545
 30
0.0
 10
-4.90390917143789
 20
13.75739923302553
 30
0.0
 10
-4.618648440717488
 20
14.32164414406317
 30
0.0
 10
-3.789496230787134
 20
15.41908511206977
 30
0.0
 10
-3.141972756854939
 20
15.95871699252054
 30
0.0
 10
-1.650728444502313
 20
16.6836260661655
 30
0.0
 10
-0.806738395352122
 20
16.86894600743813
 30
0.0
 10
0.0001019809239503
 20
16.86894600743813
 30
0.0
  0
ELLIPSE
  5
21A7
330
218E
100
AcDbEntity
  8
0
100
AcDbEllipse
 10
0.0001019809239545
 20
14.51353601288762
 30
0.0
 11
-3.712310601229377
 21
-6.429910574805837
 31
0.0
210
0.0
220
0.0
230
1.0
 40
0.5773502691896254
 41
5.236189010040277
 42
5.754678964100673
  0
SPLINE
  5
21A8
330
218E
100
AcDbEntity
  8
0
100
AcDbSpline
210
0.0
220
0.0
230
1.0
 70
     8
 71
     3
 72
    22
 73
    18
 74
     0
 42
0.000000001
 43
0.0000000001
 40
1.310200973025924
 40
1.310200973025924
 40
1.310200973025924
 40
1.310200973025924
 40
1.390779175149877
 40
1.390779175149877
 40
1.549111985286894
 40
1.549111985286894
 40
1.679598195300054
 40
1.679598195300054
 40
1.810084405313213
 40
1.810084405313213
 40
1.929969415964203
 40
1.929969415964203
 40
2.049854426615193
 40
2.049854426615193
 40
2.218729342655085
 40
2.218729342655085
 40
2.309654082158694
 40
2.309654082158694
 40
2.309654082158694
 40
2.309654082158694
 10
3.198631979874998
 20
10.45365105052256
 30
0.0
 10
3.162148240678654
 20
10.68742111563975
 30
0.0
 10
3.105323325949927
 20
10.92474462337743
 30
0.0
 10
2.867699163188231
 20
11.61471524835121
 30
0.0
 10
2.619417522208178
 20
12.05387783036785
 30
0.0
 10
2.033474450490677
 20
12.71425808199635
 30
0.0
 10
1.684997107278459
 20
12.99480153535018
 30
0.0
 10
0.8859124631395925
 20
13.37981111996786
 30
0.0
 10
0.4350560143011487
 20
13.48338652785816
 30
0.0
 10
-0.3995147212460156
 20
13.48338652785816
 30
0.0
 10
-0.8178152043342796
 20
13.39568279280146
 30
0.0
 10
-1.57050002648509
 20
13.06305278719399
 30
0.0
 10
-1.905154135859212
 20
12.81896314952125
 30
0.0
 10
-2.533471370878826
 20
12.186707089721
 30
0.0
 10
-2.815257399400708
 20
11.72677833344605
 30
0.0
 10
-3.090601718842893
 20
10.98327201643912
 30
0.0
 10
-3.157311822338166
 20
10.71636427967338
 30
0.0
 10
-3.198364992088609
 20
10.45366608141958
 30
0.0
  0
SPLINE
  5
21A9
330
218E
100
AcDbEntity
  8
0
100
AcDbSpline
210
0.0
220
0.0
230
1.0
 70
     8
 71
     3
 72
    12
 73
     8
 74
     0
 42
0.000000001
 43
0.0000000001
 40
-0.9683230832597132
 40
-0.9683230832597132
 40
-0.9683230832597132
 40
-0.9683230832597132
 40
-0.7262709703768917
 40
-0.7262709703768917
 40
-0.4842188574940703
 40
-0.4842188574940703
 40
-0.2968095483009811
 40
-0.2968095483009811
 40
-0.2968095483009811
 40
-0.2968095483009811
 10
-10.96005312746753
 20
14.2478653371888
 30
0.0
 10
-10.38953082606762
 20
14.57725654148072
 30
0.0
 10
-9.670366935743516
 20
14.76575909951227
 30
0.0
 10
-8.147229910876186
 20
14.76172820483563
 30
0.0
 10
-7.343884568087313
 20
14.56906625071952
 30
0.0
 10
-6.080478290903819
 20
13.97205292700245
 30
0.0
 10
-5.538114602360618
 20
13.60573134333609
 30
0.0
 10
-5.071281968404096
 20
13.15339970300545
 30
0.0
  0
SPLINE
  5
21AA
330
218E
100
AcDbEntity
  8
0
100
AcDbSpline
210
0.0
220
0.0
230
1.0
 70
     8
 71
     3
 72
    12
 73
     8
 74
     0
 42
0.000000001
 43
0.0000000001
 40
-1.639836618218444
 40
-1.639836618218444
 40
-1.639836618218444
 40
-1.639836618218444
 40
-1.452427309025355
 40
-1.452427309025355
 40
-1.210375196142534
 40
-1.210375196142534
 40
-0.9683230832597132
 40
-0.9683230832597132
 40
-0.9683230832597132
 40
-0.9683230832597132
 10
-12.24330192954506
 20
9.012632047807338
 30
0.0
 10
-12.47343368405966
 20
9.601623004601192
 30
0.0
 10
-12.6123777784056
 20
10.20085899957371
 30
0.0
 10
-12.70318575503396
 20
11.47487226776759
 30
0.0
 10
-12.59079461903297
 20
12.19623492441978
 30
0.0
 10
-12.00499371255948
 20
13.41786170146026
 30
0.0
 10
-11.53057542886745
 20
13.91847413289687
 30
0.0
 10
-10.96005312746753
 20
14.2478653371888
 30
0.0
  0
ELLIPSE
  5
21AB
330
218E
100
AcDbEntity
  8
0
100
AcDbEllipse
 10
0.0001019809239522
 20
14.51353601288761
 30
0.0
 11
-12.33556227717923
 21
-8.5147432618486
 31
0.0
210
0.0
220
0.0
230
1.0
 40
0.3419987131196464
 41
5.789763368937325
 42
6.308253322997725
  0
ELLIPSE
  5
21AC
330
218E
100
AcDbEntity
  8
0
100
AcDbEllipse
 10
-9.335053127467533
 20
9.123881698130876
 30
0.0
 11
-2.625000000000001
 21
4.546633369868301
 31
0.0
210
0.0
220
0.0
230
1.0
 40
0.8164965809277259
 41
4.455497160066153
 42
6.147301846613383
  0
SPLINE
  5
21AD
330
218E
100
AcDbEntity
  8
0
100
AcDbSpline
210
0.0
220
0.0
230
1.0
 70
    12
 71
     2
 72
     6
 73
     3
 74
     0
 42
0.000000001
 43
0.0000000001
 40
1.1692185368321
 40
1.1692185368321
 40
1.1692185368321
 40
1.216440262548221
 40
1.216440262548221
 40
1.216440262548221
 10
-12.25859343223886
 20
5.895723440121157
 30
0.0
 41
1.391470628279508
 10
-12.16083428989009
 20
5.788806843545611
 30
0.0
 41
1.391777506747551
 10
-12.05888148574489
 20
5.684898943224345
 30
0.0
 41
1.391470628279508
  0
ELLIPSE
  5
21AE
330
218E
100
AcDbEntity
  8
0
100
AcDbEllipse
 10
-10.33505312746753
 20
8.54653142894125
 30
0.0
 11
1.625000000000001
 21
-2.814582562299424
 31
0.0
210
0.0
220
0.0
230
1.0
 40
0.816496580927726
 41
4.687419325561279
 42
9.775284037956486
  0
SPLINE
  5
21AF
330
218E
100
AcDbEntity
  8
0
100
AcDbSpline
210
0.0
220
0.0
230
1.0
 70
     8
 71
     3
 72
    14
 73
    10
 74
     0
 42
0.000000001
 43
0.0000000001
 40
1.0617634062931
 40
1.0617634062931
 40
1.0617634062931
 40
1.0617634062931
 40
1.23244636501286
 40
1.23244636501286
 40
1.390779175149877
 40
1.390779175149877
 40
1.549111985286894
 40
1.549111985286894
 40
1.576858204344336
 40
1.576858204344336
 40
1.576858204344336
 40
1.576858204344336
 10
-11.85202243910074
 20
6.257434721520375
 30
0.0
 10
-11.72032876368578
 20
6.793881826775594
 30
0.0
 10
-11.65596702481018
 20
7.319361260676444
 30
0.0
 10
-11.65596702481018
 20
8.21482876181933
 30
0.0
 10
-11.71188102099973
 20
8.660410004862995
 30
0.0
 10
-11.96866922002744
 20
9.438203049295566
 30
0.0
 10
-12.16995443379873
 20
9.769853376118717
 30
0.0
 10
-12.46777056038578
 20
10.03381875481245
 30
0.0
 10
-12.51498830658724
 20
10.070795555957
 30
0.0
 10
-12.56470456693023
 20
10.10486387746314
 30
0.0
  0
SPLINE
  5
21B0
330
218E
100
AcDbEntity
  8
0
100
AcDbSpline
210
0.0
220
0.0
230
1.0
 70
     8
 71
     3
 72
    12
 73
     8
 74
     0
 42
0.000000001
 43
0.0000000001
 40
2.229626229330337
 40
2.229626229330337
 40
2.229626229330337
 40
2.229626229330337
 40
2.471678342213158
 40
2.471678342213158
 40
2.71373045509598
 40
2.71373045509598
 40
2.901139764289069
 40
2.901139764289069
 40
2.901139764289069
 40
2.901139764289069
 10
-15.49989801907604
 20
7.920016834998926
 30
0.0
 10
-15.49989801907604
 20
8.385846343434975
 30
0.0
 10
-15.32683674096089
 20
8.787721259738672
 30
0.0
 10
-14.66404001539354
 20
9.306448359182313
 30
0.0
 10
-14.17546161028445
 20
9.422745204422863
 30
0.0
 10
-13.21788752823461
 20
9.356871142059201
 30
0.0
 10
-12.73613017487852
 20
9.235464328336433
 30
0.0
 10
-12.24330192954506
 20
9.012632047807338
 30
0.0
  0
SPLINE
  5
21B1
330
218E
100
AcDbEntity
  8
0
100
AcDbSpline
210
0.0
220
0.0
230
1.0
 70
     8
 71
     3
 72
    12
 73
     8
 74
     0
 42
0.000000001
 43
0.0000000001
 40
1.558112694371606
 40
1.558112694371606
 40
1.558112694371606
 40
1.558112694371606
 40
1.745522003564695
 40
1.745522003564695
 40
1.987574116447516
 40
1.987574116447516
 40
2.229626229330337
 40
2.229626229330337
 40
2.229626229330337
 40
2.229626229330337
 10
-12.24330192954506
 20
3.156702271190352
 30
0.0
 10
-12.73613017487852
 20
3.572800010486363
 30
0.0
 10
-13.2178875282346
 20
4.023597543550437
 30
0.0
 10
-14.17546161028444
 20
5.046894109119028
 30
0.0
 10
-14.66404001539353
 20
5.678292967841191
 30
0.0
 10
-15.32683674096089
 20
6.881506478726119
 30
0.0
 10
-15.49989801907604
 20
7.454187326562877
 30
0.0
 10
-15.49989801907604
 20
7.920016834998926
 30
0.0
  0
ELLIPSE
  5
21B2
330
218E
100
AcDbEntity
  8
0
100
AcDbEllipse
 10
0.00010198092395
 20
14.51353601288761
 30
0.0
 11
-12.29355330186272
 21
-14.452929072275
 31
0.0
210
0.0
220
0.0
230
0.9999999999999998
 40
0.2134217652833884
 41
5.775752668875876
 42
5.791126718068593
  0
ELLIPSE
  5
21B3
330
218E
100
AcDbEntity
  8
0
100
AcDbEllipse
 10
-13.20180098021976
 20
3.734227383374142
 30
0.0
 11
-3.320391543176798
 21
4.066632513517784
 31
0.0
210
0.0
220
0.0
230
1.0
 40
0.4082482904638627
 41
4.919144769066956
 42
5.843127016176813
  0
SPLINE
  5
21B4
330
218E
100
AcDbEntity
  8
0
100
AcDbSpline
210
0.0
220
0.0
230
1.0
 70
     8
 71
     3
 72
    24
 73
    20
 74
     0
 42
0.000000001
 43
0.0000000001
 40
0.0
 40
0.0
 40
0.0
 40
0.0
 40
0.1854267130171537
 40
0.1854267130171537
 40
0.3708534260343075
 40
0.3708534260343075
 40
0.4935383042703689
 40
0.4935383042703689
 40
0.5548807433883996
 40
0.5548807433883996
 40
0.6162231825064302
 40
0.6162231825064302
 40
0.6775656216244608
 40
0.6775656216244608
 40
0.7389080607424914
 40
0.7389080607424914
 40
0.8615929389785526
 40
0.8615929389785526
 40
1.028584099344275
 40
1.028584099344275
 40
1.028584099344275
 40
1.028584099344275
 10
-19.73406889094193
 20
-3.475735406300692
 30
0.0
 10
-19.73406889094193
 20
-3.980402996937936
 30
0.0
 10
-19.74988682289832
 20
-4.473161976908852
 30
0.0
 10
-19.80734112350945
 20
-5.287993344598493
 30
0.0
 10
-19.84841159720335
 20
-5.611304395828845
 30
0.0
 10
-19.91428359214996
 20
-5.919413758289229
 30
0.0
 10
-19.94316870561953
 20
-5.994201772976276
 30
0.0
 10
-19.97555295990345
 20
-5.952349179445204
 30
0.0
 10
-19.98450621029218
 20
-5.913277631933193
 30
0.0
 10
-19.99668914938482
 20
-5.780756239808102
 30
0.0
 10
-19.99989801907604
 20
-5.687225934524622
 30
0.0
 10
-19.99989801907604
 20
-5.451118776274334
 30
0.0
 10
-19.99668914938483
 20
-5.307116093352918
 30
0.0
 10
-19.98450621029219
 20
-4.978510501702211
 30
0.0
 10
-19.97555295990345
 20
-4.793959238182274
 30
0.0
 10
-19.94316870561953
 20
-4.205827405918663
 30
0.0
 10
-19.91428359214997
 20
-3.765678623880525
 30
0.0
 10
-19.85235298294011
 20
-2.802653247463911
 30
0.0
 10
-19.81549365488934
 20
-2.213715187893876
 30
0.0
 10
-19.78753483243478
 20
-1.642998540318085
 30
0.0
  0
SPLINE
  5
21B5
330
218E
100
AcDbEntity
  8
0
100
AcDbSpline
210
0.0
220
0.0
230
1.0
 70
     8
 71
     3
 72
    14
 73
    10
 74
     0
 42
0.000000001
 43
0.0000000001
 40
1.810084405313212
 40
1.810084405313212
 40
1.810084405313213
 40
1.810084405313213
 40
1.929969415964203
 40
1.929969415964203
 40
2.049854426615193
 40
2.049854426615193
 40
2.218729342655085
 40
2.218729342655085
 40
2.387604258694977
 40
2.387604258694977
 40
2.387604258694977
 40
2.387604258694977
 10
-19.99989801907605
 20
1.936381144065653
 30
0.0
 10
-19.99989801907605
 20
1.70566233349515
 30
0.0
 10
-19.98672247846795
 20
1.384059603842089
 30
0.0
 10
-19.94169707798565
 20
0.6428622406397211
 30
0.0
 10
-19.91067034412266
 20
0.2234732559822983
 30
0.0
 10
-19.84221728366811
 20
-0.7320205357127242
 30
0.0
 10
-19.80157775111456
 20
-1.331175286349119
 30
0.0
 10
-19.74737434055282
 20
-2.473136006420034
 30
0.0
 10
-19.73406889094193
 20
-3.016116101130597
 30
0.0
 10
-19.73406889094193
 20
-3.475735406300692
 30
0.0
  0
SPLINE
  5
21B6
330
218E
100
AcDbEntity
  8
0
100
AcDbSpline
210
0.0
220
0.0
230
1.0
 70
     8
 71
     3
 72
     8
 73
     4
 74
     0
 42
0.000000001
 43
0.0000000001
 40
-0.4088641782430763
 40
-0.4088641782430763
 40
-0.4088641782430763
 40
-0.4088641782430763
 40
-0.2968095483009809
 40
-0.2968095483009809
 40
-0.2968095483009809
 40
-0.2968095483009809
 10
-12.55656209474196
 20
3.168717833104415
 30
0.0
 10
-12.48590019475743
 20
3.188903682347246
 30
0.0
 10
-12.38090090315575
 20
3.18656153085955
 30
0.0
 10
-12.24330192954506
 20
3.156702271190352
 30
0.0
  0
SPLINE
  5
21B7
330
218E
100
AcDbEntity
  8
0
100
AcDbSpline
210
0.0
220
0.0
230
1.0
 70
    11
 71
     3
 72
    42
 73
    38
 74
     0
 42
0.000000001
 43
0.0000000001
 40
0.0
 40
0.0
 40
0.0
 40
0.0
 40
0.1854267130171538
 40
0.1854267130171538
 40
0.3708534260343076
 40
0.3708534260343076
 40
0.4935383042703691
 40
0.4935383042703691
 40
0.5548807433883997
 40
0.5548807433883997
 40
0.6162231825064304
 40
0.6162231825064304
 40
0.677565621624461
 40
0.677565621624461
 40
0.7389080607424918
 40
0.7389080607424918
 40
0.8615929389785531
 40
0.8615929389785531
 40
1.047019651995706
 40
1.047019651995706
 40
1.23244636501286
 40
1.23244636501286
 40
1.390779175149877
 40
1.390779175149877
 40
1.549111985286894
 40
1.549111985286894
 40
1.679598195300054
 40
1.679598195300054
 40
1.810084405313214
 40
1.810084405313214
 40
1.929969415964204
 40
1.929969415964204
 40
2.049854426615193
 40
2.049854426615193
 40
2.218729342655086
 40
2.218729342655086
 40
2.387604258694978
 40
2.387604258694978
 40
2.387604258694978
 40
2.387604258694978
 10
-11.65596702481017
 20
-10.98259549760297
 30
0.0
 10
-11.65596702481017
 20
-11.48726308824021
 30
0.0
 10
-11.7319282644465
 20
-12.00197071859191
 30
0.0
 10
-12.04338983371034
 20
-12.9050269559038
 30
0.0
 10
-12.27744443274942
 20
-13.29413315354492
 30
0.0
 10
-12.76260707085869
 20
-13.73402041614057
 30
0.0
 10
-13.00676879347883
 20
-13.87410657461023
 30
0.0
 10
-13.41545301656097
 20
-13.93773388066519
 30
0.0
 10
-13.55872436609328
 20
-13.9350662847801
 30
0.0
 10
-13.84972045916031
 20
-13.87504903999232
 30
0.0
 10
-13.99744812722405
 20
-13.81761465101947
 30
0.0
 10
-14.28661915838993
 20
-13.650661678334
 30
0.0
 10
-14.42980879941646
 20
-13.54013488059167
 30
0.0
 10
-14.70357561478911
 20
-13.27408610816349
 30
0.0
 10
-14.83418515619434
 20
-13.11862849793989
 30
0.0
 10
-15.19707112766083
 20
-12.60953493236359
 30
0.0
 10
-15.40038313106163
 20
-12.21109969772046
 30
0.0
 10
-15.79238870053683
 20
-11.26477913435133
 30
0.0
 10
-15.9683608786649
 20
-10.6389438665378
 30
0.0
 10
-16.19856979678783
 20
-9.423154027521084
 30
0.0
 10
-16.25216110252273
 20
-8.833649200225105
 30
0.0
 10
-16.25216110252273
 20
-7.898054282502686
 30
0.0
 10
-16.21269649478152
 20
-7.461970098307673
 30
0.0
 10
-16.02406404660845
 20
-6.723526794977848
 30
0.0
 10
-15.8742259964175
 20
-6.421579501896848
 30
0.0
 10
-15.50782698476725
 20
-6.067210046855055
 30
0.0
 10
-15.28600390171061
 20
-5.96320323507303
 30
0.0
 10
-14.75735463132865
 20
-5.955139144326725
 30
0.0
 10
-14.44959258931245
 20
-6.051015424654998
 30
0.0
 10
-13.8594619628272
 20
-6.391727500713296
 30
0.0
 10
-13.5543623405521
 20
-6.637215899044992
 30
0.0
 10
-12.9902960327064
 20
-7.232751226690464
 30
0.0
 10
-12.73172062870342
 20
-7.582882928205774
 30
0.0
 10
-12.23902962784428
 20
-8.404181187283889
 30
0.0
 10
-12.01104032717996
 20
-8.939094343229726
 30
0.0
 10
-11.7195978380437
 20
-9.998395121220468
 30
0.0
 10
-11.65596702481017
 20
-10.52297619243287
 30
0.0
 10
-11.65596702481017
 20
-10.98259549760297
 30
0.0
  0
SPLINE
  5
21B8
330
218E
100
AcDbEntity
  8
0
100
AcDbSpline
210
0.0
220
0.0
230
1.0
 70
    11
 71
     3
 72
    42
 73
    38
 74
     0
 42
0.000000001
 43
0.0000000001
 40
0.0
 40
0.0
 40
0.0
 40
0.0
 40
0.1854267130171537
 40
0.1854267130171537
 40
0.3708534260343075
 40
0.3708534260343075
 40
0.4935383042703689
 40
0.4935383042703689
 40
0.5548807433883996
 40
0.5548807433883996
 40
0.6162231825064302
 40
0.6162231825064302
 40
0.6775656216244608
 40
0.6775656216244608
 40
0.7389080607424914
 40
0.7389080607424914
 40
0.8615929389785526
 40
0.8615929389785526
 40
1.047019651995706
 40
1.047019651995706
 40
1.23244636501286
 40
1.23244636501286
 40
1.390779175149877
 40
1.390779175149877
 40
1.549111985286894
 40
1.549111985286894
 40
1.679598195300054
 40
1.679598195300054
 40
1.810084405313213
 40
1.810084405313213
 40
1.929969415964203
 40
1.929969415964203
 40
2.049854426615193
 40
2.049854426615193
 40
2.218729342655085
 40
2.218729342655085
 40
2.387604258694977
 40
2.387604258694977
 40
2.387604258694977
 40
2.387604258694977
 10
3.250101980923964
 20
-12.99287589654024
 30
0.0
 10
3.250101980923964
 20
-13.49754348717748
 30
0.0
 10
3.158494497571987
 20
-14.05232455959449
 30
0.0
 10
2.775475622772179
 20
-15.12146323367845
 30
0.0
 10
2.485542908169225
 20
-15.63587906477461
 30
0.0
 10
1.865291320345001
 20
-16.34012206244509
 30
0.0
 10
1.548879614272777
 20
-16.61426728884491
 30
0.0
 10
1.003297097546026
 20
-16.90610396613951
 30
0.0
 10
0.8096340623266716
 20
-16.98401298566553
 30
0.0
 10
0.4102863800063369
 20
-17.08908890859299
 30
0.0
 10
0.2045767779840688
 20
-17.11617773919198
 30
0.0
 10
-0.2043728161361349
 20
-17.11617773919198
 30
0.0
 10
-0.4100824181584032
 20
-17.08908890859299
 30
0.0
 10
-0.8094301004787421
 20
-16.98401298566553
 30
0.0
 10
-1.003093135698097
 20
-16.90610396613951
 30
0.0
 10
-1.548675652424844
 20
-16.61426728884491
 30
0.0
 10
-1.865087358497067
 20
-16.34012206244509
 30
0.0
 10
-2.485338946321293
 20
-15.63587906477462
 30
0.0
 10
-2.775271660924248
 20
-15.12146323367846
 30
0.0
 10
-3.158290535724057
 20
-14.0523245595945
 30
0.0
 10
-3.249898019076037
 20
-13.49754348717749
 30
0.0
 10
-3.249898019076037
 20
-12.56194856945507
 30
0.0
 10
-3.182455161456493
 20
-12.10029785922176
 30
0.0
 10
-2.867495201340317
 20
-11.24142228883025
 30
0.0
 10
-2.619213560360264
 20
-10.8442661399754
 30
0.0
 10
-2.033270488642762
 20
-10.26214758818323
 30
0.0
 10
-1.684793145430546
 20
-10.02175553287634
 30
0.0
 10
-0.8857085012916783
 20
-9.696168773502789
 30
0.0
 10
-0.4348520524532348
 20
-9.610624239726854
 30
0.0
 10
0.3997186830939295
 20
-9.610624239726854
 30
0.0
 10
0.8180191661821938
 20
-9.68311417094995
 30
0.0
 10
1.570703988333004
 20
-9.963753322379778
 30
0.0
 10
1.905358097707126
 20
-10.17201637375676
 30
0.0
 10
2.53367533272674
 20
-10.72522964779644
 30
0.0
 10
2.815461361248623
 20
-11.13823191395232
 30
0.0
 10
3.173419871475164
 20
-12.04223083810641
 30
0.0
 10
3.250101980923964
 20
-12.53325659137014
 30
0.0
 10
3.250101980923964
 20
-12.99287589654024
 30
0.0
  0
SPLINE
  5
21B9
330
218E
100
AcDbEntity
  8
0
100
AcDbSpline
210
0.0
220
0.0
230
1.0
 70
     8
 71
     3
 72
     8
 73
     4
 74
     0
 42
0.000000001
 43
0.0000000001
 40
-1.639836618218444
 40
-1.639836618218444
 40
-1.639836618218444
 40
-1.639836618218444
 40
-1.527781988276348
 40
-1.527781988276348
 40
-1.527781988276348
 40
-1.527781988276348
 10
12.24350589139297
 20
3.156702271190354
 30
0.0
 10
12.38110486500366
 20
3.186561530859557
 30
0.0
 10
12.48610415660534
 20
3.18890368234725
 30
0.0
 10
12.55676605658988
 20
3.168717833104419
 30
0.0
  0
ELLIPSE
  5
21BA
330
218E
100
AcDbEntity
  8
0
100
AcDbEllipse
 10
0.0001019809239556
 20
14.51353601288761
 30
0.0
 11
12.29355330186272
 21
-14.45292907227499
 31
0.0
210
0.0
220
0.0
230
0.9999999999999998
 40
0.2134217652833884
 41
0.492058589110993
 42
0.5074326383037109
  0
SPLINE
  5
21BB
330
218E
100
AcDbEntity
  8
0
100
AcDbSpline
210
0.0
220
0.0
230
1.0
 70
    11
 71
     3
 72
    42
 73
    38
 74
     0
 42
0.000000001
 43
0.0000000001
 40
0.0
 40
0.0
 40
0.0
 40
0.0
 40
0.1854267130171538
 40
0.1854267130171538
 40
0.3708534260343076
 40
0.3708534260343076
 40
0.4935383042703691
 40
0.4935383042703691
 40
0.5548807433883997
 40
0.5548807433883997
 40
0.6162231825064304
 40
0.6162231825064304
 40
0.677565621624461
 40
0.677565621624461
 40
0.7389080607424918
 40
0.7389080607424918
 40
0.8615929389785531
 40
0.8615929389785531
 40
1.047019651995706
 40
1.047019651995706
 40
1.23244636501286
 40
1.23244636501286
 40
1.401321281052753
 40
1.401321281052753
 40
1.570196197092645
 40
1.570196197092645
 40
1.690081207743635
 40
1.690081207743635
 40
1.809966218394625
 40
1.809966218394625
 40
1.929851229045614
 40
1.929851229045614
 40
2.049736239696604
 40
2.049736239696604
 40
2.218611155736496
 40
2.218611155736496
 40
2.387486071776389
 40
2.387486071776389
 40
2.387486071776389
 40
2.387486071776389
 10
16.25236506437065
 20
-8.328981609587851
 30
0.0
 10
16.25236506437065
 20
-8.833649200225094
 30
0.0
 10
16.19877375863574
 20
-9.423154027521073
 30
0.0
 10
15.96856484051282
 20
-10.63894386653779
 30
0.0
 10
15.79259266238475
 20
-11.26477913435132
 30
0.0
 10
15.40058709290956
 20
-12.21109969772045
 30
0.0
 10
15.19727508950875
 20
-12.60953493236359
 30
0.0
 10
14.83438911804227
 20
-13.11862849793988
 30
0.0
 10
14.70377957663703
 20
-13.27408610816348
 30
0.0
 10
14.43001276126438
 20
-13.54013488059166
 30
0.0
 10
14.28682312023785
 20
-13.65066167833399
 30
0.0
 10
13.99765208907197
 20
-13.81761465101946
 30
0.0
 10
13.84992442100823
 20
-13.87504903999231
 30
0.0
 10
13.5589283279412
 20
-13.93506628478009
 30
0.0
 10
13.4156569784089
 20
-13.93773388066518
 30
0.0
 10
13.00697275532676
 20
-13.87410657461022
 30
0.0
 10
12.76281103270661
 20
-13.73402041614056
 30
0.0
 10
12.27764839459734
 20
-13.29413315354491
 30
0.0
 10
12.04359379555827
 20
-12.90502695590379
 30
0.0
 10
11.73213222629442
 20
-12.0019707185919
 30
0.0
 10
11.65617098665809
 20
-11.4872630882402
 30
0.0
 10
11.65617098665809
 20
-10.52297619243286
 30
0.0
 10
11.71980179989162
 20
-9.998395121220461
 30
0.0
 10
12.01124428902788
 20
-8.939094343229719
 30
0.0
 10
12.2392335896922
 20
-8.404181187283882
 30
0.0
 10
12.73192459055134
 20
-7.582882928205766
 30
0.0
 10
12.99049999455432
 20
-7.232751226690455
 30
0.0
 10
13.55456630240002
 20
-6.637215899044981
 30
0.0
 10
13.85966592467512
 20
-6.391727500713288
 30
0.0
 10
14.4248092846347
 20
-6.065441829709897
 30
0.0
 10
14.71127587869023
 20
-5.969389313799615
 30
0.0
 10
15.21166665452259
 20
-5.950360057642751
 30
0.0
 10
15.42636363070038
 20
-6.027247823060676
 30
0.0
 10
15.82224738507875
 20
-6.335527208007314
 30
0.0
 10
15.99276370763733
 20
-6.640363035111827
 30
0.0
 10
16.20755099843031
 20
-7.407391913388617
 30
0.0
 10
16.25236506437065
 20
-7.869362304417755
 30
0.0
 10
16.25236506437065
 20
-8.328981609587851
 30
0.0
  0
SPLINE
  5
21BC
330
218E
100
AcDbEntity
  8
0
100
AcDbSpline
210
0.0
220
0.0
230
1.0
 70
     8
 71
     3
 72
    32
 73
    28
 74
     0
 42
0.000000001
 43
0.0000000001
 40
0.2038622656685888
 40
0.2038622656685888
 40
0.2038622656685888
 40
0.2038622656685888
 40
0.3708534260343073
 40
0.3708534260343073
 40
0.4935383042703686
 40
0.4935383042703686
 40
0.5548807433883994
 40
0.5548807433883994
 40
0.61622318250643
 40
0.61622318250643
 40
0.6775656216244606
 40
0.6775656216244606
 40
0.7389080607424913
 40
0.7389080607424913
 40
0.8615929389785526
 40
0.8615929389785526
 40
1.047019651995706
 40
1.047019651995706
 40
1.232446365012859
 40
1.232446365012859
 40
1.390779175149877
 40
1.390779175149877
 40
1.549111985286893
 40
1.549111985286893
 40
1.679598195300053
 40
1.679598195300053
 40
1.810084405313213
 40
1.810084405313213
 40
1.810084405313213
 40
1.810084405313213
 10
19.78773879428269
 20
-1.642998540318119
 30
0.0
 10
19.81569761673726
 20
-2.213715187893896
 30
0.0
 10
19.85255694478803
 20
-2.802653247463911
 30
0.0
 10
19.91448755399789
 20
-3.765678623880509
 30
0.0
 10
19.94337266746745
 20
-4.205827405918649
 30
0.0
 10
19.97575692175137
 20
-4.793959238182264
 30
0.0
 10
19.9847101721401
 20
-4.978510501702199
 30
0.0
 10
19.99689311123274
 20
-5.307116093352906
 30
0.0
 10
20.00010198092397
 20
-5.451118776274324
 30
0.0
 10
20.00010198092397
 20
-5.68722593452461
 30
0.0
 10
19.99689311123274
 20
-5.780756239808086
 30
0.0
 10
19.9847101721401
 20
-5.913277631933178
 30
0.0
 10
19.97575692175137
 20
-5.952349179445189
 30
0.0
 10
19.94337266746745
 20
-5.994201772976262
 30
0.0
 10
19.91448755399789
 20
-5.919413758289219
 30
0.0
 10
19.84861555905127
 20
-5.611304395828836
 30
0.0
 10
19.80754508535737
 20
-5.287993344598485
 30
0.0
 10
19.75009078474624
 20
-4.473161976908842
 30
0.0
 10
19.73427285278985
 20
-3.980402996937926
 30
0.0
 10
19.73427285278985
 20
-3.044808079215506
 30
0.0
 10
19.74590432690804
 20
-2.537503782267427
 30
0.0
 10
19.79409772051421
 20
-1.468961525347206
 30
0.0
 10
19.83047635875468
 20
-0.9074566876567914
 30
0.0
 10
19.8982529789563
 20
0.05208710423944
 30
0.0
 10
19.93302510966242
 20
0.5137483464798654
 30
0.0
 10
19.98448678588848
 20
1.330398252874351
 30
0.0
 10
20.00010198092396
 20
1.685260315810224
 30
0.0
 10
20.00010198092396
 20
1.936381144065661
 30
0.0
  0
SPLINE
  5
21BD
330
218E
100
AcDbEntity
  8
0
100
AcDbSpline
210
0.0
220
0.0
230
1.0
 70
    12
 71
     2
 72
     6
 73
     3
 74
     0
 42
0.000000001
 43
0.0000000001
 40
-1.216440262548214
 40
-1.216440262548214
 40
-1.216440262548214
 40
-1.169218536832109
 40
-1.169218536832109
 40
-1.169218536832109
 10
12.05908544759282
 20
5.684898943224377
 30
0.0
 41
1.391470628279507
 10
12.16103825173824
 20
5.788806843545876
 30
0.0
 41
1.391777506747551
 10
12.25879739408674
 20
5.895723440121138
 30
0.0
 41
1.391470628279507
  0
ELLIPSE
  5
21BE
330
218E
100
AcDbEntity
  8
0
100
AcDbEllipse
 10
13.20200494206767
 20
3.734227383374151
 30
0.0
 11
-3.320391543176623
 21
-4.066632513517925
 31
0.0
210
0.0
220
0.0
230
1.0
 40
0.4082482904638628
 41
3.581650944591643
 42
4.505633191701979
  0
SPLINE
  5
21BF
330
218E
100
AcDbEntity
  8
0
100
AcDbSpline
210
0.0
220
0.0
230
1.0
 70
     8
 71
     3
 72
    12
 73
     8
 74
     0
 42
0.000000001
 43
0.0000000001
 40
2.229626229330337
 40
2.229626229330337
 40
2.229626229330337
 40
2.229626229330337
 40
2.471678342213158
 40
2.471678342213158
 40
2.71373045509598
 40
2.71373045509598
 40
2.901139764289069
 40
2.901139764289069
 40
2.901139764289069
 40
2.901139764289069
 10
15.50010198092395
 20
7.920016834998937
 30
0.0
 10
15.50010198092395
 20
7.454187326562888
 30
0.0
 10
15.3270407028088
 20
6.881506478726128
 30
0.0
 10
14.66424397724145
 20
5.678292967841198
 30
0.0
 10
14.17566557213235
 20
5.046894109119037
 30
0.0
 10
13.21809149008251
 20
4.02359754355044
 30
0.0
 10
12.73633413672643
 20
3.572800010486367
 30
0.0
 10
12.24350589139297
 20
3.156702271190354
 30
0.0
  0
SPLINE
  5
21C0
330
218E
100
AcDbEntity
  8
0
100
AcDbSpline
210
0.0
220
0.0
230
1.0
 70
     8
 71
     3
 72
    12
 73
     8
 74
     0
 42
0.000000001
 43
0.0000000001
 40
1.558112694827372
 40
1.558112694827372
 40
1.558112694827372
 40
1.558112694827372
 40
1.745522003564695
 40
1.745522003564695
 40
1.987574116447516
 40
1.987574116447516
 40
2.229626229330337
 40
2.229626229330337
 40
2.229626229330337
 40
2.229626229330337
 10
12.24350589432484
 20
9.012632054203047
 30
0.0
 10
12.73633413840987
 20
9.235464333710439
 30
0.0
 10
13.21809149109874
 20
9.356871142129119
 30
0.0
 10
14.17566557213235
 20
9.422745204422875
 30
0.0
 10
14.66424397724144
 20
9.306448359182322
 30
0.0
 10
15.3270407028088
 20
8.787721259738678
 30
0.0
 10
15.50010198092395
 20
8.385846343434986
 30
0.0
 10
15.50010198092395
 20
7.920016834998937
 30
0.0
  0
ELLIPSE
  5
21C1
330
218E
100
AcDbEntity
  8
0
100
AcDbEllipse
 10
0.000101980923956
 20
14.51353601288761
 30
0.0
 11
12.33556227717923
 21
-8.514743261848591
 31
0.0
210
0.0
220
0.0
230
1.0
 40
0.3419987131196465
 41
6.258117291361442
 42
6.776607245635691
  0
SPLINE
  5
21C2
330
218E
100
AcDbEntity
  8
0
100
AcDbSpline
210
0.0
220
0.0
230
1.0
 70
     8
 71
     3
 72
    12
 73
     8
 74
     0
 42
0.000000001
 43
0.0000000001
 40
3.443241506162718
 40
3.443241506162718
 40
3.443241506162718
 40
3.443241506162718
 40
3.514557939832276
 40
3.514557939832276
 40
3.671579412728819
 40
3.671579412728819
 40
3.828600885625363
 40
3.828600885625363
 40
3.828600885625363
 40
3.828600885625363
 10
8.738919744490418
 20
5.077276746413885
 30
0.0
 10
8.549178057118309
 20
4.990301673485506
 30
0.0
 10
8.361687481531056
 20
4.920398103474836
 30
0.0
 10
7.781697523585366
 20
4.750779010938539
 30
0.0
 10
7.349220630308747
 20
4.700688959345278
 30
0.0
 10
6.499387896443912
 20
4.795152789783283
 30
0.0
 10
6.08036025023893
 20
4.940919437865103
 30
0.0
 10
5.710257089315444
 20
5.154598597452211
 30
0.0
  0
SPLINE
  5
21C3
330
218E
100
AcDbEntity
  8
0
100
AcDbSpline
210
0.0
220
0.0
230
1.0
 70
     8
 71
     3
 72
    12
 73
     8
 74
     0
 42
0.000000001
 43
0.0000000001
 40
2.229626229330337
 40
2.229626229330337
 40
2.229626229330337
 40
2.229626229330337
 40
2.471678342213158
 40
2.471678342213158
 40
2.71373045509598
 40
2.71373045509598
 40
2.901139763263222
 40
2.901139763263222
 40
2.901139763263222
 40
2.901139763263222
 10
10.96025708931543
 20
14.24786533718881
 30
0.0
 10
11.53077939071535
 20
13.91847413289688
 30
0.0
 10
12.00519767440739
 20
13.41786170146027
 30
0.0
 10
12.59099858088088
 20
12.19623492441979
 30
0.0
 10
12.70338971688186
 20
11.4748722677676
 30
0.0
 10
12.61258174047042
 20
10.20085900261693
 30
0.0
 10
12.47363764746262
 20
9.60162301115959
 30
0.0
 10
12.24350589517274
 20
9.012632057481175
 30
0.0
  0
SPLINE
  5
21C4
330
218E
100
AcDbEntity
  8
0
100
AcDbSpline
210
0.0
220
0.0
230
1.0
 70
     8
 71
     3
 72
    12
 73
     8
 74
     0
 42
0.000000001
 43
0.0000000001
 40
0.6306515730353127
 40
0.6306515730353127
 40
0.6306515730353127
 40
0.6306515730353127
 40
0.7876730459318564
 40
0.7876730459318564
 40
0.9446945188284002
 40
0.9446945188284002
 40
1.016010952497958
 40
1.016010952497958
 40
1.016010952497958
 40
1.016010952497958
 10
5.710257089315444
 20
5.154598597452211
 30
0.0
 10
5.340153928391958
 20
5.368277757039317
 30
0.0
 10
4.964349050302147
 20
5.681407880819763
 30
0.0
 10
4.314112742436389
 20
6.453009315427937
 30
0.0
 10
4.040701787264739
 20
6.910643906340492
 30
0.0
 10
3.760782821330996
 20
7.576731647557142
 30
0.0
 10
3.682948388103071
 20
7.799820682829999
 30
0.0
 10
3.619838822609373
 20
8.032779494665383
 30
0.0
  0
ELLIPSE
  5
21C5
330
218E
100
AcDbEntity
  8
0
100
AcDbEllipse
 10
9.33525708931544
 20
9.123881698130881
 30
0.0
 11
-2.625000000000001
 21
-4.546633369868296
 31
0.0
210
0.0
220
0.0
230
0.9999999999999998
 40
0.8164965809277262
 41
5.025345413310259
 42
6.146572952566499
  0
ELLIPSE
  5
21C6
330
218E
100
AcDbEntity
  8
0
100
AcDbEllipse
 10
10.33525708931544
 20
8.546531428941255
 30
0.0
 11
1.625
 21
2.814582562299426
 31
0.0
210
0.0
220
0.0
230
1.0
 40
0.816496580927726
 41
5.932679229992478
 42
11.02054394238768
  0
ELLIPSE
  5
21C7
330
218E
100
AcDbEntity
  8
0
100
AcDbEllipse
 10
9.33525708931544
 20
9.123881698130881
 30
0.0
 11
2.625
 21
4.546633369868297
 31
0.0
210
0.0
220
0.0
230
1.0
 40
0.8164965809277259
 41
0.1358834605662027
 42
1.827688147113454
  0
SPLINE
  5
21C8
330
218E
100
AcDbEntity
  8
0
100
AcDbSpline
210
0.0
220
0.0
230
1.0
 70
     8
 71
     3
 72
     8
 73
     4
 74
     0
 42
0.000000001
 43
0.0000000001
 40
0.0
 40
0.0
 40
0.0
 40
0.0
 40
0.1706829587197604
 40
0.1706829587197604
 40
0.1706829587197604
 40
0.1706829587197604
 10
11.65617098665809
 20
7.783901434734159
 30
0.0
 10
11.65617098665809
 20
7.319361260676449
 30
0.0
 10
11.72053272553368
 20
6.793881826775598
 30
0.0
 10
11.85222640094865
 20
6.257434721520382
 30
0.0
  0
SPLINE
  5
21C9
330
218E
100
AcDbEntity
  8
0
100
AcDbSpline
210
0.0
220
0.0
230
1.0
 70
     8
 71
     3
 72
    12
 73
     8
 74
     0
 42
0.000000001
 43
0.0000000001
 40
2.042563875544159
 40
2.042563875544159
 40
2.042563875544159
 40
2.042563875544159
 40
2.049736239696603
 40
2.049736239696603
 40
2.218611155736495
 40
2.218611155736495
 40
2.387486071776387
 40
2.387486071776387
 40
2.387486071776387
 40
2.387486071776387
 10
12.56465980001522
 20
10.10523713240039
 30
0.0
 10
12.55204190581996
 20
10.09655174474666
 30
0.0
 10
12.5396108327206
 20
10.08768156698668
 30
0.0
 10
12.2392335896922
 20
9.865658629208448
 30
0.0
 10
12.01124428902788
 20
9.527640762723452
 30
0.0
 10
11.71980179989162
 20
8.716354985048385
 30
0.0
 10
11.65617098665809
 20
8.243520739904253
 30
0.0
 10
11.65617098665809
 20
7.783901434734159
 30
0.0
  0
SPLINE
  5
21CA
330
218E
100
AcDbEntity
  8
0
100
AcDbSpline
210
0.0
220
0.0
230
1.0
 70
     8
 71
     3
 72
    12
 73
     8
 74
     0
 42
0.000000001
 43
0.0000000001
 40
1.558112695397453
 40
1.558112695397453
 40
1.558112695397453
 40
1.558112695397453
 40
1.745522003564695
 40
1.745522003564695
 40
1.987574116447516
 40
1.987574116447516
 40
2.229626229330337
 40
2.229626229330337
 40
2.229626229330337
 40
2.229626229330337
 10
5.071485937919446
 20
13.15339971043472
 30
0.0
 10
5.538318570126776
 20
13.60573134737538
 30
0.0
 10
6.080682255769602
 20
13.97205292842852
 30
0.0
 10
7.34408852993522
 20
14.56906625071952
 30
0.0
 10
8.147433872724089
 20
14.76172820483563
 30
0.0
 10
9.670570897591417
 20
14.76575909951227
 30
0.0
 10
10.38973478791552
 20
14.57725654148073
 30
0.0
 10
10.96025708931543
 20
14.24786533718881
 30
0.0
  0
ELLIPSE
  5
21CB
330
218E
100
AcDbEntity
  8
0
100
AcDbEllipse
 10
0.000101980923957
 20
1.857839008507864
 30
0.0
 11
8.075378797541251
 21
0.0000000000000025
 31
0.0
210
0.0
220
0.0
230
1.0
 40
0.5773502691896255
 41
0.0
 42
0.7853981633974483
  0
ELLIPSE
  5
21CC
330
218E
100
AcDbEntity
  8
0
100
AcDbEllipse
 10
0.0001019809239558
 20
7.920016834998935
 30
0.0
 11
15.5
 21
0.0000000000000056
 31
0.0
210
0.0
220
0.0
230
1.0
 40
0.5773502691896255
 41
0.0
 42
0.7853981633974483
  0
ELLIPSE
  5
21CD
330
218E
100
AcDbEntity
  8
0
100
AcDbEllipse
 10
0.000101980923957
 20
1.857839008507864
 30
0.0
 11
8.075378797541251
 21
0.0000000000000013
 31
0.0
210
0.0
220
0.0
230
1.0
 40
0.5773502691896255
 41
6.145934757279448
 42
6.283185307179586
  0
ELLIPSE
  5
21CE
330
218E
100
AcDbEntity
  8
0
100
AcDbEllipse
 10
0.0001019809239558
 20
7.920016834998935
 30
0.0
 11
15.5
 21
0.0000000000000034
 31
0.0
210
0.0
220
0.0
230
1.0
 40
0.5773502691896255
 41
5.860811916126947
 42
6.283185307179586
  0
ELLIPSE
  5
21CF
330
218E
100
AcDbEntity
  8
0
100
AcDbEllipse
 10
0.000101980923957
 20
1.857839008507864
 30
0.0
 11
-8.075378797541253
 21
-0.0000000000000022
 31
0.0
210
0.0
220
0.0
230
1.0
 40
0.5773502691896254
 41
0.0
 42
0.1372505499001368
  0
ELLIPSE
  5
21D0
330
218E
100
AcDbEntity
  8
0
100
AcDbEllipse
 10
0.0001019809239558
 20
7.920016834998935
 30
0.0
 11
-15.5
 21
-0.0000000000000056
 31
0.0
210
0.0
220
0.0
230
1.0
 40
0.5773502691896257
 41
0.0
 42
0.4223733910526378
  0
ELLIPSE
  5
21D1
330
218E
100
AcDbEntity
  8
0
100
AcDbEllipse
 10
0.000101980923957
 20
1.857839008507864
 30
0.0
 11
-8.075378797541251
 21
-0.0000000000000031
 31
0.0
210
0.0
220
0.0
230
1.0
 40
0.5773502691896255
 41
5.497787143782137
 42
6.283185307179584
  0
ELLIPSE
  5
21D2
330
218E
100
AcDbEntity
  8
0
100
AcDbEllipse
 10
0.0001019809239558
 20
7.920016834998935
 30
0.0
 11
-15.5
 21
-0.0000000000000069
 31
0.0
210
0.0
220
0.0
230
1.0
 40
0.5773502691896255
 41
5.497787143782137
 42
6.283185307179584
  0
ELLIPSE
  5
21D3
330
218E
100
AcDbEntity
  8
0
100
AcDbEllipse
 10
0.000101980923957
 20
1.857839008507864
 30
0.0
 11
8.075378797541253
 21
-0.0000000000004807
 31
0.0
210
0.0
220
0.0
230
1.0
 40
0.5773502691896254
 41
1.570796326794999
 42
2.356194490192587
  0
ELLIPSE
  5
21D4
330
218E
100
AcDbEntity
  8
0
100
AcDbEllipse
 10
0.0001019809239558
 20
7.920016834998935
 30
0.0
 11
15.5
 21
-0.000000000000922
 31
0.0
210
0.0
220
0.0
230
1.0
 40
0.5773502691896255
 41
1.570796326795001
 42
2.356194490192587
  0
ELLIPSE
  5
21D5
330
218E
100
AcDbEntity
  8
0
100
AcDbEllipse
 10
0.000101980923957
 20
1.857839008507864
 30
0.0
 11
8.075378797541254
 21
0.0000000000000027
 31
0.0
210
0.0
220
0.0
230
1.0
 40
0.5773502691896254
 41
0.7853981633974483
 42
1.570796326794896
  0
ELLIPSE
  5
21D6
330
218E
100
AcDbEntity
  8
0
100
AcDbEllipse
 10
0.0001019809239558
 20
7.920016834998935
 30
0.0
 11
15.5
 21
0.0000000000000052
 31
0.0
210
0.0
220
0.0
230
1.0
 40
0.5773502691896254
 41
0.7853981633974483
 42
1.570796326794896
  0
ELLIPSE
  5
21D7
330
218E
100
AcDbEntity
  8
0
100
AcDbEllipse
 10
0.0001019809239553
 20
10.20620726159657
 30
0.0
 11
-17.50000000000001
 21
-0.0000000000000044
 31
0.0
210
0.0
220
0.0
230
1.0
 40
0.5773502691896254
 41
0.0
 42
6.283185307179586
  0
ELLIPSE
  5
21D8
330
218E
100
AcDbEntity
  8
0
100
AcDbEllipse
 10
0.000101980923957
 20
1.857839008507864
 30
0.0
 11
-6.92
 21
-0.0000000000000019
 31
0.0
210
0.0
220
0.0
230
1.0
 40
0.5773502691896254
 41
2.892796835564072
 42
6.531981125205308
  0
ELLIPSE
  5
21D9
330
218E
100
AcDbEntity
  8
0
100
AcDbEllipse
 10
0.0001019809239558
 20
7.920016834998935
 30
0.0
 11
-17.5
 21
-0.0000000000000065
 31
0.0
210
0.0
220
0.0
230
1.0
 40
0.5773502691896254
 41
3.25497249860815
 42
6.169805462161227
  0
LINE
  5
21DA
330
218E
100
AcDbEntity
  8
0
100
AcDbLine
 10
20.00010198092396
 20
9.389710680668848
 30
0.0
 11
20.00010198092396
 21
1.936381144065661
 31
0.0
  0
LINE
  5
21DB
330
218E
100
AcDbEntity
  8
0
100
AcDbLine
 10
20.00010198092397
 20
-5.569172355399469
 30
0.0
 11
20.00010198092397
 21
-9.389710680668851
 31
0.0
  0
LINE
  5
21DC
330
218E
100
AcDbEntity
  8
0
100
AcDbLine
 10
-19.99989801907605
 20
9.389710680668839
 30
0.0
 11
-19.99989801907605
 21
1.936381144065653
 31
0.0
  0
LINE
  5
21DD
330
218E
100
AcDbEntity
  8
0
100
AcDbLine
 10
-19.99989801907604
 20
-5.569172355399476
 30
0.0
 11
-19.99989801907604
 21
-9.389710680668857
 31
0.0
  0
ELLIPSE
  5
21DE
330
218E
100
AcDbEntity
  8
0
100
AcDbEllipse
 10
0.0001019809239593
 20
-9.389710680668855
 30
0.0
 11
20.0
 21
0.0000000000000044
 31
0.0
210
0.0
220
0.0
230
1.0
 40
0.5773502691896255
 41
3.141592653589793
 42
6.283185307179586
  0
ELLIPSE
  5
21DF
330
218E
100
AcDbEntity
  8
0
100
AcDbEllipse
 10
0.0001019809239595
 20
-10.20620726159658
 30
0.0
 11
19.0
 21
0.0000000000011402
 31
0.0
210
0.0
220
0.0
230
1.0
 40
0.5773502691896254
 41
3.926990816986998
 42
5.497787143781896
  0
ELLIPSE
  5
21E0
330
218E
100
AcDbEntity
  8
0
100
AcDbEllipse
 10
0.0001019809239555
 20
9.389710680668843
 30
0.0
 11
-20.0
 21
-0.0000000000000067
 31
0.0
210
0.0
220
0.0
230
1.0
 40
0.5773502691896255
 41
5.497787143782137
 42
10.21017612416683
  0
ELLIPSE
  5
21E1
330
218E
100
AcDbEntity
  8
0
100
AcDbEllipse
 10
0.0001019809239553
 20
10.20620726159657
 30
0.0
 11
-19.0
 21
-0.0000000000000067
 31
0.0
210
0.0
220
0.0
230
1.0
 40
0.5773502691896254
 41
0.0
 42
6.283185307179586
  0
LINE
  5
21E2
330
218E
100
AcDbEntity
  8
0
100
AcDbLine
 10
-13.43492686162045
 20
-17.96292478040998
 30
0.0
 11
-14.142033642807
 21
-17.55467648994611
 31
0.0
  0
LINE
  5
21E3
330
218E
100
AcDbEntity
  8
0
100
AcDbLine
 10
13.43513082346837
 20
-17.96292478040997
 30
0.0
 11
14.14223760465491
 21
-17.55467648994611
 31
0.0
  0
LINE
  5
21E4
330
218E
100
AcDbEntity
  8
0
100
AcDbLine
 10
13.43513082346836
 20
17.96292478040997
 30
0.0
 11
14.14223760465491
 21
17.5546764899461
 31
0.0
  0
LINE
  5
21E5
330
218E
100
AcDbEntity
  8
0
100
AcDbLine
 10
-13.43492686162045
 20
17.96292478040996
 30
0.0
 11
-14.142033642807
 21
17.55467648994609
 31
0.0
  0
ENDBLK
  5
2190
330
218E
100
AcDbEntity
  8
0
100
AcDbBlockEnd
  0
ENDSEC
  0
SECTION
  2
ENTITIES
  0
INSERT
  5
21E6
330
1F
100
AcDbEntity
  8
0
100
AcDbBlockReference
  2
CCS40-C-Front
 10
0.0
 20
0.0
 30
0.0
  0
INSERT
  5
21E7
330
1F
100
AcDbEntity
  8
0
100
AcDbBlockReference
  2
CCS40-C-Left
 10
52.08132260188905
 20
0.0
 30
0.0
  0
INSERT
  5
21E8
330
1F
100
AcDbEntity
  8
0
100
AcDbBlockReference
  2
CCS40-C-Right
 10
-52.08103415627755
 20
0.0
 30
0.0
  0
INSERT
  5
21E9
330
1F
100
AcDbEntity
  8
0
100
AcDbBlockReference
  2
CCS40-C-Top
 10
0.0
 20
-32.01919700279896
 30
0.0
  0
INSERT
  5
21EA
330
1F
100
AcDbEntity
  8
0
100
AcDbBlockReference
  2
CCS40-C-Bottom
 10
0.0
 20
57.01912903715491
 30
0.0
  0
INSERT
  5
21EB
330
1F
100
AcDbEntity
  8
0
100
AcDbBlockReference
  2
CCS40-C-ISO
 10
52.05560837660291
 20
-33.19505937899841
 30
0.0
  0
MTEXT
  5
21EC
330
1F
100
AcDbEntity
  8
0
100
AcDbMText
 10
0.0
 20
-64.03836002277589
 30
0.0
 40
4.006387673325643
 41
0.0
 71
     5
 72
     5
  1
CCS40
 73
     1
 44
1.0
1001
ACAD
1000
MTEXTBEGIN
1070
    73
1070
     1
1070
    44
1040
1.0
1070
    74
1070
     0
1000
MTEXTEND
  0
ENDSEC
  0
SECTION
  2
OBJECTS
  0
DICTIONARY
  5
C
330
0
100
AcDbDictionary
281
     1
  3
ACAD_CIP_PREVIOUS_PRODUCT_INFO
350
216
  3
ACAD_COLOR
350
6B
  3
ACAD_DETAILVIEWSTYLE
350
21B
  3
ACAD_GROUP
350
D
  3
ACAD_LAYOUT
350
1A
  3
ACAD_MATERIAL
350
6A
  3
ACAD_MLEADERSTYLE
350
12D
  3
ACAD_MLINESTYLE
350
17
  3
ACAD_PLOTSETTINGS
350
19
  3
ACAD_PLOTSTYLENAME
350
E
  3
ACAD_SCALELIST
350
10C
  3
ACAD_SECTIONVIEWSTYLE
350
219
  3
ACAD_TABLESTYLE
350
7E
  3
ACAD_VISUALSTYLE
350
EF
  3
ACDB_RECOMPOSE_DATA
350
22ED
  3
AcDbVariableDictionary
350
5E
  3
DWGPROPS
350
22EE
  0
DICTIONARY
  5
223D
330
8
100
AcDbDictionary
280
     1
281
     1
  0
DICTIONARY
  5
1FF
330
2
100
AcDbDictionary
280
     1
281
     1
  3
ACAD_LAYERSTATES
360
200
  0
DICTIONARY
  5
13C
330
10
100
AcDbDictionary
280
     1
281
     1
  0
DICTIONARY
  5
1CE
330
1F
100
AcDbDictionary
280
     1
281
     1
  3
ACAD_LAYOUTSELFREF
360
2245
  0
DICTIONARY
  5
21F0
330
D2
100
AcDbDictionary
280
     1
281
     1
  3
ACAD_LAYOUTSELFREF
360
224E
  0
DICTIONARY
  5
21F2
330
D6
100
AcDbDictionary
280
     1
281
     1
  3
ACAD_LAYOUTSELFREF
360
2251
  0
XRECORD
  5
216
102
{ACAD_REACTORS
330
C
102
}
330
C
100
AcDbXrecord
280
     1
300
ACD
300
2021
300

  0
DICTIONARY
  5
6B
102
{ACAD_REACTORS
330
C
102
}
330
C
100
AcDbDictionary
281
     1
  0
DICTIONARY
  5
21B
102
{ACAD_REACTORS
330
C
102
}
330
C
100
AcDbDictionary
281
     1
  3
Metric50
350
21C
  0
DICTIONARY
  5
D
102
{ACAD_REACTORS
330
C
102
}
330
C
100
AcDbDictionary
281
     1
  0
DICTIONARY
  5
1A
102
{ACAD_REACTORS
330
C
102
}
330
C
100
AcDbDictionary
281
     1
  3
Layout1
350
D3
  3
Layout2
350
D7
  3
Model
350
22
  0
DICTIONARY
  5
6A
102
{ACAD_REACTORS
330
C
102
}
330
C
100
AcDbDictionary
281
     1
  3
ByBlock
350
ED
  3
ByLayer
350
EC
  3
Global
350
EE
  0
DICTIONARY
  5
12D
102
{ACAD_REACTORS
330
C
102
}
330
C
100
AcDbDictionary
281
     1
  3
Standard
350
12E
  0
DICTIONARY
  5
17
102
{ACAD_REACTORS
330
C
102
}
330
C
100
AcDbDictionary
281
     1
  3
Standard
350
18
  0
DICTIONARY
  5
19
102
{ACAD_REACTORS
330
C
102
}
330
C
100
AcDbDictionary
281
     1
  0
ACDBDICTIONARYWDFLT
  5
E
102
{ACAD_REACTORS
330
C
102
}
330
C
100
AcDbDictionary
281
     1
  3
Normal
350
F
100
AcDbDictionaryWithDefault
340
F
  0
DICTIONARY
  5
10C
102
{ACAD_REACTORS
330
C
102
}
330
C
100
AcDbDictionary
281
     1
  3
A0
350
10D
  3
A1
350
1BE
  3
A2
350
1BF
  3
A3
350
1C0
  3
A4
350
1C1
  3
A5
350
1C2
  3
A6
350
1C3
  3
A7
350
1C4
  3
A8
350
1C5
  3
A9
350
1C6
  3
B0
350
1C7
  3
B1
350
1C8
  3
B2
350
1C9
  3
B3
350
1CA
  3
B4
350
1CB
  3
B5
350
1CC
  3
B6
350
1CD
  0
DICTIONARY
  5
219
102
{ACAD_REACTORS
330
C
102
}
330
C
100
AcDbDictionary
281
     1
  3
Metric50
350
21A
  0
DICTIONARY
  5
7E
102
{ACAD_REACTORS
330
C
102
}
330
C
100
AcDbDictionary
281
     1
  3
Standard
350
7F
  0
DICTIONARY
  5
EF
102
{ACAD_REACTORS
330
C
102
}
330
C
100
AcDbDictionary
281
     1
  3
2dWireframe
350
F5
  3
Basic
350
F4
  3
Brighten
350
FB
  3
ColorChange
350
FF
  3
Conceptual
350
F8
  3
Dim
350
FA
  3
EdgeColorOff
350
1E6
  3
Facepattern
350
FE
  3
Flat
350
F0
  3
FlatWithEdges
350
F1
  3
Gouraud
350
F2
  3
GouraudWithEdges
350
F3
  3
Hidden
350
F7
  3
JitterOff
350
1E4
  3
Linepattern
350
FD
  3
OverhangOff
350
1E5
  3
Realistic
350
F9
  3
Shaded
350
1F3
  3
Shaded with edges
350
1F2
  3
Shades of Gray
350
1EF
  3
Sketchy
350
1F0
  3
Thicken
350
FC
  3
Wireframe
350
F6
  3
X-Ray
350
1F1
  0
XRECORD
  5
22ED
102
{ACAD_REACTORS
330
C
102
}
330
C
100
AcDbXrecord
280
     1
 90
        1
330
7F
  0
DICTIONARY
  5
5E
102
{ACAD_REACTORS
330
C
102
}
330
C
100
AcDbDictionary
281
     1
  3
CANNOSCALE
350
146
  3
CENTEREXE
350
259
  3
CENTERLTYPEFILE
350
25A
  3
CMLEADERSTYLE
350
145
  3
CTABLESTYLE
350
84
  3
CVIEWDETAILSTYLE
350
227
  3
CVIEWSECTIONSTYLE
350
228
  3
DIMASSOC
350
5F
  3
HIDETEXT
350
63
  3
INDEXCTL
350
229A
  3
LAYEREVAL
350
1AE
  3
LAYERNOTIFY
350
1AF
  3
LIGHTINGUNITS
350
2298
  3
MSLTSCALE
350
2297
  3
PSOLHEIGHT
350
22EA
  3
PSOLWIDTH
350
22E9
  3
SORTENTS
350
2299
  3
XCLIPFRAME
350
22EB
  0
XRECORD
  5
22EE
102
{ACAD_REACTORS
330
C
102
}
330
C
100
AcDbXrecord
280
     1
  1
DWGPROPS COOKIE
  2

  3

  4

  6

  7

  8
tronnguyen
  9

300
=
301
=
302
=
303
=
304
=
305
=
306
=
307
=
308
=
309
=
 40
0.0082638888888889
 41
2460312.625706019
 42
2460312.634398148
  1

 90
        0
  0
DICTIONARY
  5
200
102
{ACAD_REACTORS
330
1FF
102
}
330
1FF
100
AcDbDictionary
281
     1
  0
XRECORD
  5
2245
102
{ACAD_REACTORS
330
1CE
102
}
330
1CE
100
AcDbXrecord
280
     1
340
1F
  0
XRECORD
  5
224E
102
{ACAD_REACTORS
330
21F0
102
}
330
21F0
100
AcDbXrecord
280
     1
340
D2
  0
XRECORD
  5
2251
102
{ACAD_REACTORS
330
21F2
102
}
330
21F2
100
AcDbXrecord
280
     1
340
D6
  0
ACDBDETAILVIEWSTYLE
  5
21C
102
{ACAD_XDICTIONARY
360
232D
102
}
102
{ACAD_REACTORS
330
21B
102
}
330
21B
100
AcDbModelDocViewStyle
 70
     0
  3
Metric50
290
     0
100
AcDbDetailViewStyle
 70
     0
 71
     0
 90
        3
 71
     1
340
11
 40
5.0
340
0
 40
5.0
300

 40
0.0
280
     1
 71
     2
340
16
 90
       25
 71
     3
340
11
 40
5.0
 90
        0
 40
15.0
 90
        1
300
%<\AcVar ViewDetailId>% (%<\AcVar ViewScale \f "%sn">%)
 71
     4
340
16
 90
       25
340
16
 90
       25
280
     0
  0
LAYOUT
  5
D3
102
{ACAD_XDICTIONARY
360
22F2
102
}
102
{ACAD_REACTORS
330
1A
102
}
330
1A
100
AcDbPlotSettings
  1

  2
C:\Documents and Settings\basas\Application Data\Autodesk\AutoCAD 2005\R16.1\enu\plotters\Default Windows System Printer.pc3
  4

  6

 40
0.0
 41
0.0
 42
0.0
 43
0.0
 44
0.0
 45
0.0
 46
0.0
 47
0.0
 48
0.0
 49
0.0
140
0.0
141
0.0
142
1.0
143
1.0
 70
   688
 72
     0
 73
     0
 74
     5
  7

 75
    16
147
1.0
148
0.0
149
0.0
100
AcDbLayout
  1
Layout1
 70
     1
 71
     1
 10
0.0
 20
0.0
 11
12.0
 21
9.0
 12
0.0
 22
0.0
 32
0.0
 14
0.0
 24
0.0
 34
0.0
 15
0.0
 25
0.0
 35
0.0
146
0.0
 13
0.0
 23
0.0
 33
0.0
 16
1.0
 26
0.0
 36
0.0
 17
0.0
 27
1.0
 37
0.0
 76
     0
330
D2
  0
LAYOUT
  5
D7
102
{ACAD_XDICTIONARY
360
22F4
102
}
102
{ACAD_REACTORS
330
1A
102
}
330
1A
100
AcDbPlotSettings
  1

  2
C:\Documents and Settings\basas\Application Data\Autodesk\AutoCAD 2005\R16.1\enu\plotters\Default Windows System Printer.pc3
  4

  6

 40
0.0
 41
0.0
 42
0.0
 43
0.0
 44
0.0
 45
0.0
 46
0.0
 47
0.0
 48
0.0
 49
0.0
140
0.0
141
0.0
142
1.0
143
1.0
 70
   688
 72
     0
 73
     0
 74
     5
  7

 75
    16
147
1.0
148
0.0
149
0.0
100
AcDbLayout
  1
Layout2
 70
     1
 71
     2
 10
0.0
 20
0.0
 11
12.0
 21
9.0
 12
0.0
 22
0.0
 32
0.0
 14
0.0
 24
0.0
 34
0.0
 15
0.0
 25
0.0
 35
0.0
146
0.0
 13
0.0
 23
0.0
 33
0.0
 16
1.0
 26
0.0
 36
0.0
 17
0.0
 27
1.0
 37
0.0
 76
     0
330
D6
  0
LAYOUT
  5
22
102
{ACAD_XDICTIONARY
360
22EF
102
}
102
{ACAD_REACTORS
330
1A
102
}
330
1A
100
AcDbPlotSettings
  1

  2
none_device
  4
ISO_A4_(210.00_x_297.00_MM)
  6

 40
7.5
 41
20.0
 42
7.5
 43
20.0
 44
210.0
 45
297.0
 46
11.54999923706054
 47
-13.65000009536743
 48
0.0
 49
0.0
140
0.0
141
0.0
142
1.0
143
8.704084754739808
 70
 11952
 72
     1
 73
     0
 74
     0
  7

 75
     0
147
0.1148885871608098
148
0.0
149
0.0
100
AcDbLayout
  1
Model
 70
     1
 71
     0
 10
0.0
 20
0.0
 11
12.0
 21
9.0
 12
0.0
 22
0.0
 32
0.0
 14
0.0
 24
0.0
 34
0.0
 15
0.0
 25
0.0
 35
0.0
146
0.0
 13
0.0
 23
0.0
 33
0.0
 16
1.0
 26
0.0
 36
0.0
 17
0.0
 27
1.0
 37
0.0
 76
     0
330
1F
331
EA
1001
ACAD_PSEXT
1000
None
1000
None
1000
Not applicable
1000
The layout will not be plotted unless a new plotter configuration name is selected.
1070
     0
  0
MATERIAL
  5
ED
102
{ACAD_XDICTIONARY
360
1F9
102
}
102
{ACAD_REACTORS
330
6A
102
}
330
6A
100
AcDbMaterial
  1
ByBlock
  0
MATERIAL
  5
EC
102
{ACAD_XDICTIONARY
360
1F7
102
}
102
{ACAD_REACTORS
330
6A
102
}
330
6A
100
AcDbMaterial
  1
ByLayer
  0
MATERIAL
  5
EE
102
{ACAD_XDICTIONARY
360
173
102
}
102
{ACAD_REACTORS
330
6A
102
}
330
6A
100
AcDbMaterial
  1
Global
 43
0.0007999999797903
 43
0.0
 43
0.0
 43
0.0
 43
0.0
 43
0.0007999999797903
 43
0.0
 43
0.0
 43
0.0
 43
0.0
 43
1.0
 43
0.0
 43
0.0
 43
0.0
 43
0.0
 43
1.0
 49
0.0007999999797903
 49
0.0
 49
0.0
 49
0.0
 49
0.0
 49
0.0007999999797903
 49
0.0
 49
0.0
 49
0.0
 49
0.0
 49
1.0
 49
0.0
 49
0.0
 49
0.0
 49
0.0
 49
1.0
142
0.0007999999797903
142
0.0
142
0.0
142
0.0
142
0.0
142
0.0007999999797903
142
0.0
142
0.0
142
0.0
142
0.0
142
1.0
142
0.0
142
0.0
142
0.0
142
0.0
142
1.0
144
0.0007999999797903
144
0.0
144
0.0
144
0.0
144
0.0
144
0.0007999999797903
144
0.0
144
0.0
144
0.0
144
0.0
144
1.0
144
0.0
144
0.0
144
0.0
144
0.0
144
1.0
1001
ACAD
1070
    -1
1070
     3
1070
     0
1000

1071
        0
1070
     0
  0
MLEADERSTYLE
  5
12E
102
{ACAD_XDICTIONARY
360
2319
102
}
102
{ACAD_REACTORS
330
12D
102
}
330
12D
100
AcDbMLeaderStyle
170
     2
171
     1
172
     0
 90
        2
 40
0.0
 41
0.0
173
     1
 91
-1056964608
340
14
 92
       -2
290
     1
 42
2.0
291
     1
 43
8.0
  3
Standard
 44
4.0
300

342
11
174
     1
178
     1
175
     1
176
     0
 93
-1056964608
 45
4.0
292
     0
297
     0
 46
4.0
 94
-1056964608
 47
1.0
 49
1.0
140
1.0
293
     1
141
0.0
294
     1
177
     0
142
1.0
295
     0
296
     0
143
3.75
1001
ACAD_MLEADERVER
1070
     2
  0
MLINESTYLE
  5
18
102
{ACAD_REACTORS
330
17
102
}
330
17
100
AcDbMlineStyle
  2
STANDARD
 70
     0
  3

 62
   256
 51
90.0
 52
90.0
 71
     2
 49
0.5
 62
   256
  6
BYLAYER
 49
-0.5
 62
   256
  6
BYLAYER
  0
ACDBPLACEHOLDER
  5
F
102
{ACAD_REACTORS
330
E
102
}
330
E
  0
SCALE
  5
10D
102
{ACAD_REACTORS
330
10C
102
}
330
10C
100
AcDbScale
 70
     0
300
1:1
140
1.0
141
1.0
290
     1
  0
SCALE
  5
1BE
102
{ACAD_REACTORS
330
10C
102
}
330
10C
100
AcDbScale
 70
     0
300
1:2
140
1.0
141
2.0
290
     0
  0
SCALE
  5
1BF
102
{ACAD_REACTORS
330
10C
102
}
330
10C
100
AcDbScale
 70
     0
300
1:4
140
1.0
141
4.0
290
     0
  0
SCALE
  5
1C0
102
{ACAD_REACTORS
330
10C
102
}
330
10C
100
AcDbScale
 70
     0
300
1:5
140
1.0
141
5.0
290
     0
  0
SCALE
  5
1C1
102
{ACAD_REACTORS
330
10C
102
}
330
10C
100
AcDbScale
 70
     0
300
1:8
140
1.0
141
8.0
290
     0
  0
SCALE
  5
1C2
102
{ACAD_REACTORS
330
10C
102
}
330
10C
100
AcDbScale
 70
     0
300
1:10
140
1.0
141
10.0
290
     0
  0
SCALE
  5
1C3
102
{ACAD_REACTORS
330
10C
102
}
330
10C
100
AcDbScale
 70
     0
300
1:16
140
1.0
141
16.0
290
     0
  0
SCALE
  5
1C4
102
{ACAD_REACTORS
330
10C
102
}
330
10C
100
AcDbScale
 70
     0
300
1:20
140
1.0
141
20.0
290
     0
  0
SCALE
  5
1C5
102
{ACAD_REACTORS
330
10C
102
}
330
10C
100
AcDbScale
 70
     0
300
1:30
140
1.0
141
30.0
290
     0
  0
SCALE
  5
1C6
102
{ACAD_REACTORS
330
10C
102
}
330
10C
100
AcDbScale
 70
     0
300
1:40
140
1.0
141
40.0
290
     0
  0
SCALE
  5
1C7
102
{ACAD_REACTORS
330
10C
102
}
330
10C
100
AcDbScale
 70
     0
300
1:50
140
1.0
141
50.0
290
     0
  0
SCALE
  5
1C8
102
{ACAD_REACTORS
330
10C
102
}
330
10C
100
AcDbScale
 70
     0
300
1:100
140
1.0
141
100.0
290
     0
  0
SCALE
  5
1C9
102
{ACAD_REACTORS
330
10C
102
}
330
10C
100
AcDbScale
 70
     0
300
2:1
140
2.0
141
1.0
290
     0
  0
SCALE
  5
1CA
102
{ACAD_REACTORS
330
10C
102
}
330
10C
100
AcDbScale
 70
     0
300
4:1
140
4.0
141
1.0
290
     0
  0
SCALE
  5
1CB
102
{ACAD_REACTORS
330
10C
102
}
330
10C
100
AcDbScale
 70
     0
300
8:1
140
8.0
141
1.0
290
     0
  0
SCALE
  5
1CC
102
{ACAD_REACTORS
330
10C
102
}
330
10C
100
AcDbScale
 70
     0
300
10:1
140
10.0
141
1.0
290
     0
  0
SCALE
  5
1CD
102
{ACAD_REACTORS
330
10C
102
}
330
10C
100
AcDbScale
 70
     0
300
100:1
140
100.0
141
1.0
290
     0
  0
ACDBSECTIONVIEWSTYLE
  5
21A
102
{ACAD_XDICTIONARY
360
232B
102
}
102
{ACAD_REACTORS
330
219
102
}
330
219
100
AcDbModelDocViewStyle
 70
     0
  3
Metric50
290
     0
100
AcDbSectionViewStyle
 70
     0
 71
     0
 90
      102
 71
     1
340
11
 40
5.0
340
0
340
0
 40
5.0
300
I, O, Q, S, X, Z
 40
10.0
 90
        0
 40
2.5
 90
        0
 71
     2
340
16
 90
       25
340
16
 90
       50
 40
5.0
 40
2.5
 40
5.0
 71
     3
340
11
 40
5.0
 90
        0
 40
15.0
 90
        1
300
%<\AcVar ViewSectionStartId>%-%<\AcVar ViewSectionEndId>% (%<\AcVar ViewScale \f "%sn">%)
 71
     4
300
ANSI31
 40
1.0
 90
        0
290
     0
290
     0
 90
        6
 40
0.0
 40
1.570796326794896
 40
0.2617993877991494
 40
1.308996938995747
 40
-0.2617993877991494
 40
1.832595714594046
  0
TABLESTYLE
  5
7F
102
{ACAD_XDICTIONARY
360
162
102
}
102
{ACAD_REACTORS
330
7E
102
}
330
7E
100
AcDbTableStyle
  3
Standard
 70
     0
 71
     0
 40
1.5
 41
1.5
280
     0
281
     0
  7
Standard
140
4.5
170
     2
 62
     0
 63
     7
283
     0
274
    -2
284
     1
 64
     0
275
    -2
285
     1
 65
     0
276
    -2
286
     1
 66
     0
277
    -2
287
     1
 67
     0
278
    -2
288
     1
 68
     0
279
    -2
289
     1
 69
     0
  7
Standard
140
6.0
170
     5
 62
     0
 63
     7
283
     0
274
    -2
284
     1
 64
     0
275
    -2
285
     1
 65
     0
276
    -2
286
     1
 66
     0
277
    -2
287
     1
 67
     0
278
    -2
288
     1
 68
     0
279
    -2
289
     1
 69
     0
  7
Standard
140
4.5
170
     5
 62
     0
 63
     7
283
     0
274
    -2
284
     1
 64
     0
275
    -2
285
     1
 65
     0
276
    -2
286
     1
 66
     0
277
    -2
287
     1
 67
     0
278
    -2
288
     1
 68
     0
279
    -2
289
     1
 69
     0
  0
VISUALSTYLE
  5
F5
102
{ACAD_XDICTIONARY
360
2303
102
}
102
{ACAD_REACTORS
330
EF
102
}
330
EF
100
AcDbVisualStyle
  2
2dWireframe
 70
     4
 71
     0
 72
     2
 73
     1
 90
        0
 40
-0.6
 41
-30.0
 62
     5
 63
     7
 74
     1
 91
        4
 64
     7
 65
   257
 75
     1
175
     1
 42
1.0
 92
        0
 66
   257
 43
1.0
 76
     1
 77
     6
 78
     2
 67
     7
 79
     5
170
     0
171
     0
290
     0
174
     0
 93
        1
 44
0.0
173
     0
291
     0
 45
0.0
1001
ACAD
1000
AcDbSavedByObjectVersion
1070
     0
  0
VISUALSTYLE
  5
F4
102
{ACAD_XDICTIONARY
360
2301
102
}
102
{ACAD_REACTORS
330
EF
102
}
330
EF
100
AcDbVisualStyle
  2
Basic
 70
     7
 71
     1
 72
     0
 73
     1
 90
        0
 40
-0.6
 41
-30.0
 62
     5
 63
     7
 74
     0
 91
        4
 64
     7
 65
   257
 75
     1
175
     1
 42
1.0
 92
        8
 66
     7
 43
1.0
 76
     1
 77
     6
 78
     2
 67
     7
 79
     5
170
     0
171
     0
290
     0
174
     0
 93
        1
 44
0.0
173
     0
291
     1
 45
0.0
1001
ACAD
1000
AcDbSavedByObjectVersion
1070
     0
  0
VISUALSTYLE
  5
FB
102
{ACAD_XDICTIONARY
360
230F
102
}
102
{ACAD_REACTORS
330
EF
102
}
330
EF
100
AcDbVisualStyle
  2
Brighten
 70
    12
 71
     2
 72
     2
 73
     1
 90
        0
 40
-0.6
 41
-30.0
 62
     5
 63
     7
 74
     1
 91
        4
 64
     7
 65
   257
 75
     1
175
     1
 42
1.0
 92
        8
 66
     7
 43
1.0
 76
     1
 77
     6
 78
     2
 67
     7
 79
     5
170
     0
171
     0
290
     0
174
     0
 93
        1
 44
50.0
173
     0
291
     1
 45
0.0
1001
ACAD
1000
AcDbSavedByObjectVersion
1070
     0
  0
VISUALSTYLE
  5
FF
102
{ACAD_XDICTIONARY
360
2317
102
}
102
{ACAD_REACTORS
330
EF
102
}
330
EF
100
AcDbVisualStyle
  2
ColorChange
 70
    16
 71
     2
 72
     2
 73
     3
 90
        0
 40
-0.6
 41
-30.0
 62
     5
 63
     8
 74
     1
 91
        4
 64
     7
 65
   257
 75
     1
175
     1
 42
1.0
 92
        8
 66
     8
 43
1.0
 76
     1
 77
     6
 78
     2
 67
     7
 79
     5
170
     0
171
     0
290
     0
174
     0
 93
        1
 44
0.0
173
     0
291
     1
 45
0.0
1001
ACAD
1000
AcDbSavedByObjectVersion
1070
     0
  0
VISUALSTYLE
  5
F8
102
{ACAD_XDICTIONARY
360
2309
102
}
102
{ACAD_REACTORS
330
EF
102
}
330
EF
100
AcDbVisualStyle
  2
Conceptual
 70
     9
 71
     3
 72
     2
 73
     1
 90
        0
 40
-0.6
 41
-30.0
 62
     5
 63
     7
 74
     2
 91
        2
 64
     7
 65
   257
 75
     1
175
     1
 42
40.0
 92
        8
 66
     7
 43
1.0
 76
     1
 77
     6
 78
     2
 67
     7
 79
     3
170
     0
171
     0
290
     0
174
     0
 93
        1
 44
0.0
173
     0
291
     0
 45
0.0
1001
ACAD
1000
AcDbSavedByObjectVersion
1070
     0
  0
VISUALSTYLE
  5
FA
102
{ACAD_XDICTIONARY
360
230D
102
}
102
{ACAD_REACTORS
330
EF
102
}
330
EF
100
AcDbVisualStyle
  2
Dim
 70
    11
 71
     2
 72
     2
 73
     1
 90
        0
 40
-0.6
 41
-30.0
 62
     5
 63
     7
 74
     1
 91
        4
 64
     7
 65
   257
 75
     1
175
     1
 42
1.0
 92
        8
 66
     7
 43
1.0
 76
     1
 77
     6
 78
     2
 67
     7
 79
     5
170
     0
171
     0
290
     0
174
     0
 93
        1
 44
-50.0
173
     0
291
     1
 45
0.0
1001
ACAD
1000
AcDbSavedByObjectVersion
1070
     0
  0
VISUALSTYLE
  5
1E6
102
{ACAD_XDICTIONARY
360
231F
102
}
102
{ACAD_REACTORS
330
EF
102
}
330
EF
100
AcDbVisualStyle
  2
EdgeColorOff
 70
    22
 71
     2
 72
     2
 73
     0
 90
        0
 40
-0.6
 41
-30.0
 62
     5
 63
     7
 74
     1
 91
        4
 64
     7
 65
   257
 75
     1
175
     1
 42
1.0
 92
        8
 66
     7
 43
1.0
 76
     1
 77
     6
 78
     2
 67
     7
 79
     5
170
     0
171
     0
290
     0
174
     0
 93
        1
 44
0.0
173
     0
291
     1
 45
0.0
1001
ACAD
1000
AcDbSavedByObjectVersion
1070
     0
  0
VISUALSTYLE
  5
FE
102
{ACAD_XDICTIONARY
360
2315
102
}
102
{ACAD_REACTORS
330
EF
102
}
330
EF
100
AcDbVisualStyle
  2
Facepattern
 70
    15
 71
     2
 72
     2
 73
     1
 90
        0
 40
-0.6
 41
-30.0
 62
     5
 63
     7
 74
     1
 91
        4
 64
     7
 65
   257
 75
     1
175
     1
 42
1.0
 92
        8
 66
     7
 43
1.0
 76
     1
 77
     6
 78
     2
 67
     7
 79
     5
170
     0
171
     0
290
     0
174
     0
 93
        1
 44
0.0
173
     0
291
     1
 45
0.0
1001
ACAD
1000
AcDbSavedByObjectVersion
1070
     0
  0
VISUALSTYLE
  5
F0
102
{ACAD_XDICTIONARY
360
22F9
102
}
102
{ACAD_REACTORS
330
EF
102
}
330
EF
100
AcDbVisualStyle
  2
Flat
 70
     0
 71
     2
 72
     1
 73
     1
 90
        2
 40
-0.6
 41
30.0
 62
     5
 63
     7
 74
     0
 91
        0
 64
     7
 65
   257
 75
     1
175
     1
 42
1.0
 92
        8
 66
     7
 43
1.0
 76
     1
 77
     6
 78
     2
 67
     7
 79
     5
170
     0
171
     0
290
     0
174
     0
 93
       13
 44
0.0
173
     0
291
     1
 45
0.0
1001
ACAD
1000
AcDbSavedByObjectVersion
1070
     0
  0
VISUALSTYLE
  5
F1
102
{ACAD_XDICTIONARY
360
22FB
102
}
102
{ACAD_REACTORS
330
EF
102
}
330
EF
100
AcDbVisualStyle
  2
FlatWithEdges
 70
     1
 71
     2
 72
     1
 73
     1
 90
        2
 40
-0.6
 41
30.0
 62
     5
 63
     7
 74
     1
 91
        0
 64
     7
 65
   257
 75
     1
175
     1
 42
1.0
 92
        0
 66
   257
 43
1.0
 76
     1
 77
     6
 78
     2
 67
     7
 79
     5
170
     0
171
     0
290
     0
174
     0
 93
       13
 44
0.0
173
     0
291
     1
 45
0.0
1001
ACAD
1000
AcDbSavedByObjectVersion
1070
     0
  0
VISUALSTYLE
  5
F2
102
{ACAD_XDICTIONARY
360
22FD
102
}
102
{ACAD_REACTORS
330
EF
102
}
330
EF
100
AcDbVisualStyle
  2
Gouraud
 70
     2
 71
     2
 72
     2
 73
     1
 90
        2
 40
-0.6
 41
30.0
 62
     5
 63
     7
 74
     0
 91
        0
 64
     7
 65
   257
 75
     1
175
     1
 42
1.0
 92
        0
 66
     7
 43
1.0
 76
     1
 77
     6
 78
     2
 67
     7
 79
     5
170
     0
171
     0
290
     0
174
     0
 93
       13
 44
0.0
173
     0
291
     1
 45
0.0
1001
ACAD
1000
AcDbSavedByObjectVersion
1070
     0
  0
VISUALSTYLE
  5
F3
102
{ACAD_XDICTIONARY
360
22FF
102
}
102
{ACAD_REACTORS
330
EF
102
}
330
EF
100
AcDbVisualStyle
  2
GouraudWithEdges
 70
     3
 71
     2
 72
     2
 73
     1
 90
        2
 40
-0.6
 41
30.0
 62
     5
 63
     7
 74
     1
 91
        0
 64
     7
 65
   257
 75
     1
175
     1
 42
1.0
 92
        0
 66
   257
 43
1.0
 76
     1
 77
     6
 78
     2
 67
     7
 79
     5
170
     0
171
     0
290
     0
174
     0
 93
       13
 44
0.0
173
     0
291
     1
 45
0.0
1001
ACAD
1000
AcDbSavedByObjectVersion
1070
     0
  0
VISUALSTYLE
  5
F7
102
{ACAD_XDICTIONARY
360
2307
102
}
102
{ACAD_REACTORS
330
EF
102
}
330
EF
100
AcDbVisualStyle
  2
Hidden
 70
     6
 71
     1
 72
     2
 73
     2
 90
        0
 40
-0.6
 41
-30.0
 62
     5
 63
     7
 74
     2
 91
        2
 64
     7
 65
   257
 75
     2
175
     1
 42
40.0
 92
        0
 66
   257
 43
1.0
 76
     1
 77
     6
 78
     2
 67
     7
 79
     3
170
     0
171
     0
290
     0
174
     0
 93
        1
 44
0.0
173
     0
291
     0
 45
0.0
1001
ACAD
1000
AcDbSavedByObjectVersion
1070
     0
  0
VISUALSTYLE
  5
1E4
102
{ACAD_XDICTIONARY
360
231B
102
}
102
{ACAD_REACTORS
330
EF
102
}
330
EF
100
AcDbVisualStyle
  2
JitterOff
 70
    20
 71
     2
 72
     2
 73
     0
 90
        0
 40
-0.6
 41
-30.0
 62
     5
 63
     7
 74
     1
 91
        4
 64
     7
 65
   257
 75
     1
175
     1
 42
1.0
 92
       10
 66
     7
 43
1.0
 76
     1
 77
     6
 78
     2
 67
     7
 79
     5
170
     0
171
     0
290
     0
174
     0
 93
        1
 44
0.0
173
     0
291
     1
 45
0.0
1001
ACAD
1000
AcDbSavedByObjectVersion
1070
     0
  0
VISUALSTYLE
  5
FD
102
{ACAD_XDICTIONARY
360
2313
102
}
102
{ACAD_REACTORS
330
EF
102
}
330
EF
100
AcDbVisualStyle
  2
Linepattern
 70
    14
 71
     2
 72
     2
 73
     1
 90
        0
 40
-0.6
 41
-30.0
 62
     5
 63
     7
 74
     1
 91
        4
 64
     7
 65
   257
 75
     7
175
     7
 42
1.0
 92
        8
 66
     7
 43
1.0
 76
     1
 77
     6
 78
     2
 67
     7
 79
     5
170
     0
171
     0
290
     0
174
     0
 93
        1
 44
0.0
173
     0
291
     1
 45
0.0
1001
ACAD
1000
AcDbSavedByObjectVersion
1070
     0
  0
VISUALSTYLE
  5
1E5
102
{ACAD_XDICTIONARY
360
231D
102
}
102
{ACAD_REACTORS
330
EF
102
}
330
EF
100
AcDbVisualStyle
  2
OverhangOff
 70
    21
 71
     2
 72
     2
 73
     0
 90
        0
 40
-0.6
 41
-30.0
 62
     5
 63
     7
 74
     1
 91
        4
 64
     7
 65
   257
 75
     1
175
     1
 42
1.0
 92
        9
 66
     7
 43
1.0
 76
     1
 77
     6
 78
     2
 67
     7
 79
     5
170
     0
171
     0
290
     0
174
     0
 93
        1
 44
0.0
173
     0
291
     1
 45
0.0
1001
ACAD
1000
AcDbSavedByObjectVersion
1070
     0
  0
VISUALSTYLE
  5
F9
102
{ACAD_XDICTIONARY
360
230B
102
}
102
{ACAD_REACTORS
330
EF
102
}
330
EF
100
AcDbVisualStyle
  2
Realistic
 70
     8
 71
     2
 72
     2
 73
     0
 90
        2
 40
-0.6
 41
30.0
 62
     5
 63
     7
 74
     0
 91
        0
 64
     7
 65
   257
 75
     1
175
     1
 42
1.0
 92
        8
 66
   257
 43
1.0
 76
     1
 77
     6
 78
     2
 67
     7
 79
     3
170
     0
171
     0
290
     0
174
     0
 93
       13
 44
0.0
173
     0
291
     0
 45
0.0
1001
ACAD
1000
AcDbSavedByObjectVersion
1070
     0
  0
VISUALSTYLE
  5
1F3
102
{ACAD_XDICTIONARY
360
2329
102
}
102
{ACAD_REACTORS
330
EF
102
}
330
EF
100
AcDbVisualStyle
  2
Shaded
 70
    27
 71
     2
 72
     2
 73
     1
 90
        2
 40
-0.6
 41
30.0
 62
     5
 63
     7
 74
     0
 91
        4
 64
     7
 65
   257
 75
     1
175
     1
 42
1.0
 92
        8
 66
   257
 43
1.0
 76
     1
 77
     6
 78
     2
 67
     8
 79
     3
170
     0
171
     0
290
     0
174
     0
 93
        5
 44
0.0
173
     0
291
     0
 45
0.0
1001
ACAD
1000
AcDbSavedByObjectVersion
1070
     0
  0
VISUALSTYLE
  5
1F2
102
{ACAD_XDICTIONARY
360
2327
102
}
102
{ACAD_REACTORS
330
EF
102
}
330
EF
100
AcDbVisualStyle
  2
Shaded with edges
 70
    26
 71
     2
 72
     2
 73
     1
 90
        2
 40
-0.6
 41
30.0
 62
     5
 63
     7
 74
     1
 91
        2
 64
     7
 65
   257
 75
     2
175
     1
 42
1.0
 92
        8
 66
   257
 43
1.0
 76
     1
 77
     6
 78
     2
 67
     7
 79
     3
170
     0
171
     0
290
     0
174
     0
 93
        5
 44
0.0
173
     0
291
     0
 45
0.0
1001
ACAD
1000
AcDbSavedByObjectVersion
1070
     0
  0
VISUALSTYLE
  5
1EF
102
{ACAD_XDICTIONARY
360
2321
102
}
102
{ACAD_REACTORS
330
EF
102
}
330
EF
100
AcDbVisualStyle
  2
Shades of Gray
 70
    23
 71
     2
 72
     2
 73
     3
 90
        0
 40
-0.6
 41
-30.0
 62
     5
 63
     7
 74
     2
 91
        2
 64
     7
 65
     7
 75
     1
175
     1
 42
40.0
 92
        8
 66
     7
 43
1.0
 76
     1
 77
     6
 78
     2
 67
     7
 79
     3
170
     0
171
     0
290
     0
174
     0
 93
        1
 44
0.0
173
     0
291
     0
 45
0.0
1001
ACAD
1000
AcDbSavedByObjectVersion
1070
     0
  0
VISUALSTYLE
  5
1F0
102
{ACAD_XDICTIONARY
360
2323
102
}
102
{ACAD_REACTORS
330
EF
102
}
330
EF
100
AcDbVisualStyle
  2
Sketchy
 70
    24
 71
     1
 72
     2
 73
     2
 90
        0
 40
-0.6
 41
-30.0
 62
     5
 63
     7
 74
     2
 91
        2
 64
     7
 65
     7
 75
     1
175
     1
 42
40.0
 92
       11
 66
     7
 43
1.0
 76
     1
 77
     6
 78
     2
 67
     7
 79
     6
170
     0
171
     0
290
     0
174
     0
 93
        1
 44
0.0
173
     0
291
     0
 45
0.0
1001
ACAD
1000
AcDbSavedByObjectVersion
1070
     0
  0
VISUALSTYLE
  5
FC
102
{ACAD_XDICTIONARY
360
2311
102
}
102
{ACAD_REACTORS
330
EF
102
}
330
EF
100
AcDbVisualStyle
  2
Thicken
 70
    13
 71
     2
 72
     2
 73
     1
 90
        0
 40
-0.6
 41
-30.0
 62
     5
 63
     7
 74
     1
 91
        4
 64
     7
 65
   257
 75
     1
175
     1
 42
1.0
 92
       12
 66
     7
 43
1.0
 76
     1
 77
     6
 78
     2
 67
     7
 79
     5
170
     0
171
     0
290
     0
174
     0
 93
        1
 44
0.0
173
     0
291
     1
 45
0.0
1001
ACAD
1000
AcDbSavedByObjectVersion
1070
     0
  0
VISUALSTYLE
  5
F6
102
{ACAD_XDICTIONARY
360
2305
102
}
102
{ACAD_REACTORS
330
EF
102
}
330
EF
100
AcDbVisualStyle
  2
Wireframe
 70
     5
 71
     0
 72
     2
 73
     0
 90
        0
 40
-0.6
 41
-30.0
 62
     5
 63
     7
 74
     1
 91
        4
 64
     7
 65
   257
 75
     1
175
     1
 42
1.0
 92
        0
 66
   257
 43
1.0
 76
     1
 77
     6
 78
     2
 67
     7
 79
     3
170
     0
171
     0
290
     0
174
     0
 93
        1
 44
0.0
173
     0
291
     0
 45
0.0
1001
ACAD
1000
AcDbSavedByObjectVersion
1070
     0
  0
VISUALSTYLE
  5
1F1
102
{ACAD_XDICTIONARY
360
2325
102
}
102
{ACAD_REACTORS
330
EF
102
}
330
EF
100
AcDbVisualStyle
  2
X-Ray
 70
    25
 71
     2
 72
     2
 73
     1
 90
        1
 40
0.5
 41
-30.0
 62
     5
 63
     7
 74
     1
 91
        0
 64
     7
 65
   257
 75
     1
175
     1
 42
1.0
 92
        8
 66
     7
 43
1.0
 76
     1
 77
     6
 78
     2
 67
     7
 79
     3
170
     0
171
     0
290
     0
174
     0
 93
       13
 44
0.0
173
     0
291
     0
 45
0.0
1001
ACAD
1000
AcDbSavedByObjectVersion
1070
     0
  0
DICTIONARYVAR
  5
146
102
{ACAD_REACTORS
330
5E
102
}
330
5E
100
DictionaryVariables
280
     0
  1
1:1
  0
DICTIONARYVAR
  5
259
102
{ACAD_REACTORS
330
5E
102
}
330
5E
100
DictionaryVariables
280
     0
  1
3.500000
  0
DICTIONARYVAR
  5
25A
102
{ACAD_REACTORS
330
5E
102
}
330
5E
100
DictionaryVariables
280
     0
  1
acadiso.lin
  0
DICTIONARYVAR
  5
145
102
{ACAD_REACTORS
330
5E
102
}
330
5E
100
DictionaryVariables
280
     0
  1
STANDARD
  0
DICTIONARYVAR
  5
84
102
{ACAD_REACTORS
330
5E
102
}
330
5E
100
DictionaryVariables
280
     0
  1
STANDARD
  0
DICTIONARYVAR
  5
227
102
{ACAD_REACTORS
330
5E
102
}
330
5E
100
DictionaryVariables
280
     0
  1
Metric50
  0
DICTIONARYVAR
  5
228
102
{ACAD_REACTORS
330
5E
102
}
330
5E
100
DictionaryVariables
280
     0
  1
Metric50
  0
DICTIONARYVAR
  5
5F
102
{ACAD_REACTORS
330
5E
102
}
330
5E
100
DictionaryVariables
280
     0
  1
2
  0
DICTIONARYVAR
  5
63
102
{ACAD_REACTORS
330
5E
102
}
330
5E
100
DictionaryVariables
280
     0
  1
1
  0
DICTIONARYVAR
  5
229A
102
{ACAD_REACTORS
330
5E
102
}
330
5E
100
DictionaryVariables
280
     0
  1
0
  0
DICTIONARYVAR
  5
1AE
102
{ACAD_REACTORS
330
5E
102
}
330
5E
100
DictionaryVariables
280
     0
  1
0
  0
DICTIONARYVAR
  5
1AF
102
{ACAD_REACTORS
330
5E
102
}
330
5E
100
DictionaryVariables
280
     0
  1
0
  0
DICTIONARYVAR
  5
2298
102
{ACAD_REACTORS
330
5E
102
}
330
5E
100
DictionaryVariables
280
     0
  1
2
  0
DICTIONARYVAR
  5
2297
102
{ACAD_REACTORS
330
5E
102
}
330
5E
100
DictionaryVariables
280
     0
  1
1
  0
DICTIONARYVAR
  5
22EA
102
{ACAD_REACTORS
330
5E
102
}
330
5E
100
DictionaryVariables
280
     0
  1
80.000000
  0
DICTIONARYVAR
  5
22E9
102
{ACAD_REACTORS
330
5E
102
}
330
5E
100
DictionaryVariables
280
     0
  1
5.000000
  0
DICTIONARYVAR
  5
2299
102
{ACAD_REACTORS
330
5E
102
}
330
5E
100
DictionaryVariables
280
     0
  1
127
  0
DICTIONARYVAR
  5
22EB
102
{ACAD_REACTORS
330
5E
102
}
330
5E
100
DictionaryVariables
280
     0
  1
2
  0
DICTIONARY
  5
232D
330
21C
100
AcDbDictionary
280
     1
281
     1
  3
ACAD_XREC_ROUNDTRIP
360
232E
  0
DICTIONARY
  5
22F2
330
D3
100
AcDbDictionary
280
     1
281
     1
  3
ACAD_XREC_ROUNDTRIP
360
22F3
  0
DICTIONARY
  5
22F4
330
D7
100
AcDbDictionary
280
     1
281
     1
  3
ACAD_XREC_ROUNDTRIP
360
22F5
  0
DICTIONARY
  5
22EF
330
22
100
AcDbDictionary
280
     1
281
     1
  3
ACAD_XREC_ROUNDTRIP
360
22F0
  0
DICTIONARY
  5
1F9
330
ED
100
AcDbDictionary
280
     1
281
     1
  3
ACAD_XREC_ROUNDTRIP
360
22F7
  3
FBXASSET
360
1FA
  0
DICTIONARY
  5
1F7
330
EC
100
AcDbDictionary
280
     1
281
     1
  3
ACAD_XREC_ROUNDTRIP
360
22F6
  3
FBXASSET
360
1F8
  0
DICTIONARY
  5
173
330
EE
100
AcDbDictionary
280
     1
281
     1
  3
ACAD_XREC_ROUNDTRIP
360
22F8
  3
BUMPTILE
360
175
  3
DIFFUSETILE
360
174
  3
FBXASSET
360
1FB
  3
OPACITYTILE
360
176
  3
REFLECTIONTILE
360
177
  0
DICTIONARY
  5
2319
330
12E
100
AcDbDictionary
280
     1
281
     1
  3
ACAD_XREC_ROUNDTRIP
360
231A
  0
DICTIONARY
  5
232B
330
21A
100
AcDbDictionary
280
     1
281
     1
  3
ACAD_XREC_ROUNDTRIP
360
232C
  0
DICTIONARY
  5
162
330
7F
100
AcDbDictionary
280
     1
281
     1
  3
ACAD_ROUNDTRIP_2008_TABLESTYLE_CELLSTYLEMAP
360
22EC
  3
ACAD_XREC_ROUNDTRIP
360
22F1
  0
DICTIONARY
  5
2303
330
F5
100
AcDbDictionary
280
     1
281
     1
  3
ACAD_XREC_ROUNDTRIP
360
2304
  0
DICTIONARY
  5
2301
330
F4
100
AcDbDictionary
280
     1
281
     1
  3
ACAD_XREC_ROUNDTRIP
360
2302
  0
DICTIONARY
  5
230F
330
FB
100
AcDbDictionary
280
     1
281
     1
  3
ACAD_XREC_ROUNDTRIP
360
2310
  0
DICTIONARY
  5
2317
330
FF
100
AcDbDictionary
280
     1
281
     1
  3
ACAD_XREC_ROUNDTRIP
360
2318
  0
DICTIONARY
  5
2309
330
F8
100
AcDbDictionary
280
     1
281
     1
  3
ACAD_XREC_ROUNDTRIP
360
230A
  0
DICTIONARY
  5
230D
330
FA
100
AcDbDictionary
280
     1
281
     1
  3
ACAD_XREC_ROUNDTRIP
360
230E
  0
DICTIONARY
  5
231F
330
1E6
100
AcDbDictionary
280
     1
281
     1
  3
ACAD_XREC_ROUNDTRIP
360
2320
  0
DICTIONARY
  5
2315
330
FE
100
AcDbDictionary
280
     1
281
     1
  3
ACAD_XREC_ROUNDTRIP
360
2316
  0
DICTIONARY
  5
22F9
330
F0
100
AcDbDictionary
280
     1
281
     1
  3
ACAD_XREC_ROUNDTRIP
360
22FA
  0
DICTIONARY
  5
22FB
330
F1
100
AcDbDictionary
280
     1
281
     1
  3
ACAD_XREC_ROUNDTRIP
360
22FC
  0
DICTIONARY
  5
22FD
330
F2
100
AcDbDictionary
280
     1
281
     1
  3
ACAD_XREC_ROUNDTRIP
360
22FE
  0
DICTIONARY
  5
22FF
330
F3
100
AcDbDictionary
280
     1
281
     1
  3
ACAD_XREC_ROUNDTRIP
360
2300
  0
DICTIONARY
  5
2307
330
F7
100
AcDbDictionary
280
     1
281
     1
  3
ACAD_XREC_ROUNDTRIP
360
2308
  0
DICTIONARY
  5
231B
330
1E4
100
AcDbDictionary
280
     1
281
     1
  3
ACAD_XREC_ROUNDTRIP
360
231C
  0
DICTIONARY
  5
2313
330
FD
100
AcDbDictionary
280
     1
281
     1
  3
ACAD_XREC_ROUNDTRIP
360
2314
  0
DICTIONARY
  5
231D
330
1E5
100
AcDbDictionary
280
     1
281
     1
  3
ACAD_XREC_ROUNDTRIP
360
231E
  0
DICTIONARY
  5
230B
330
F9
100
AcDbDictionary
280
     1
281
     1
  3
ACAD_XREC_ROUNDTRIP
360
230C
  0
DICTIONARY
  5
2329
330
1F3
100
AcDbDictionary
280
     1
281
     1
  3
ACAD_XREC_ROUNDTRIP
360
232A
  0
DICTIONARY
  5
2327
330
1F2
100
AcDbDictionary
280
     1
281
     1
  3
ACAD_XREC_ROUNDTRIP
360
2328
  0
DICTIONARY
  5
2321
330
1EF
100
AcDbDictionary
280
     1
281
     1
  3
ACAD_XREC_ROUNDTRIP
360
2322
  0
DICTIONARY
  5
2323
330
1F0
100
AcDbDictionary
280
     1
281
     1
  3
ACAD_XREC_ROUNDTRIP
360
2324
  0
DICTIONARY
  5
2311
330
FC
100
AcDbDictionary
280
     1
281
     1
  3
ACAD_XREC_ROUNDTRIP
360
2312
  0
DICTIONARY
  5
2305
330
F6
100
AcDbDictionary
280
     1
281
     1
  3
ACAD_XREC_ROUNDTRIP
360
2306
  0
DICTIONARY
  5
2325
330
1F1
100
AcDbDictionary
280
     1
281
     1
  3
ACAD_XREC_ROUNDTRIP
360
2326
  0
XRECORD
  5
232E
102
{ACAD_REACTORS
330
232D
102
}
330
232D
100
AcDbXrecord
280
     1
102
DISPLAYNAME
  1
Metric50
102
FLAGS
 90
        0
  0
XRECORD
  5
22F3
102
{ACAD_REACTORS
330
22F2
102
}
330
22F2
100
AcDbXrecord
280
     1
102
SHADEPLOT
 70
     0
102
SHADEPLOTRESLEVEL
 70
     2
102
SHADEPLOTCUSTOMDPI
 70
   300
  0
XRECORD
  5
22F5
102
{ACAD_REACTORS
330
22F4
102
}
330
22F4
100
AcDbXrecord
280
     1
102
SHADEPLOT
 70
     0
102
SHADEPLOTRESLEVEL
 70
     2
102
SHADEPLOTCUSTOMDPI
 70
   300
  0
XRECORD
  5
22F0
102
{ACAD_REACTORS
330
22EF
102
}
330
22EF
100
AcDbXrecord
280
     1
102
SHADEPLOT
 70
     0
102
SHADEPLOTRESLEVEL
 70
     2
102
SHADEPLOTCUSTOMDPI
 70
   300
  0
XRECORD
  5
22F7
102
{ACAD_REACTORS
330
1F9
102
}
330
1F9
100
AcDbXrecord
280
     1
102
MATERIAL
148
0.0
149
0.0
149
0.0
 93
        0
 94
       63
282
     0
 72
     1
 77
     1
171
     1
175
     1
179
     1
273
     0
  0
XRECORD
  5
1FA
102
{ACAD_REACTORS
330
1F9
102
}
330
1F9
100
AcDbXrecord
280
     1
 70
     1
 90
429727718
  1
D62C5603-E3A1-4AEA-B7FB-FE5D8D0755AF
310
504B03040A0000080000CC70623B3DEE336E79000000790000001B0000006175746F6465736B2D64657369676E2D7061636B6167652E786D6C3C3F786D6C2076657273696F6E3D22312E302220656E636F64696E673D227574662D3822203F3E3C666F726D6174733E3C666F726D61743E687474703A2F2F736368656D612E
310
6175746F6465736B2E636F6D2F64657369676E2D7061636B6167652F323030393C2F666F726D61743E3C2F666F726D6174733E504B0304140006080800CC70623BD486FD9CA0000000F4000000130000005B436F6E74656E745F54797065735D2E786D6C7D8EC10E82300C865F65E91D8A1E8C310C0EEA1BF002731658846E
310
D98AC1B77784ABF1D8FE5FBFBF75BBCE937A534CCEB38643598122B6FEE978D0B0485F9C41B54DDD7D022595594E1A469170414C76A4D9A4D207E29CF43ECE46F218070CC6BECC4078ACAA135ACF422C856C0E68EA1BF5669944DDD7BCDE7B1F8E415D77AECB980613C2E4AC91FC167A2B244592486606FC29C8FD7F045B9A
310
EF7053A7E60B504B0304140006080800CC70623B853B8169EB0000007C01000008000000636F72652E786D6C8D90416EC3201045AF62CDB6C206821CC7C244919D9CA01740401C94182C03558F5F9C3852BBEB6A467FFE9B197D7EFC9E1EC5975982F5AE035262288C535E5B377690E21535501C055FBC8FBF6C503839990E
310
5619041F179FE64D52DE45E362569DD7661365082642A11EB9E920A89B99642953CC8E702F67A9EE7234257977194EC9EAE275C4EABCCF5EAD5940D4AC6F0E35A568B8F43562CD7046CD199FD07E60174276A7BE677B5EADB0E0D14EEFFB6A31321A0D82627C4084204C3F096B71DD52F6819B16635EADF63F509AF53FA164
310
5DDCD1EDDD17164090FCC8732078B56691CB33A85CD7DCC40F504B0304140006080800CC70623B55019EA25F0000007C00000007000000636E782E786D6C4DCB3B0E80201045D1AD90E915ED2CF8AC45050C11660C8261F98AB1B07AC9C97D42D718D865D3E909258CFD00CCE24AC6E326A164D74DC0B4128928FF32603847
310
2BA13128B1252AC747C6BAB984FC68F0B87FE8960A5C09FE86CFB69FBA01504B0304140006080800CC70623BDBABAAF470010000D40300000C0000006662782F636F72652E786D6CC553D16E823014FD95A6AF4B694182CC941A83FA05FB810A9511A125A5257EFE2E82712ECEB8A7F100CD39F7F69E734AF9FADC366850B6
310
AF8DCE7018308C942E4C59EB2AC3DE1D498AD15A706B8CFB56869196ADCAF00863C12B6B7C374385D14E6907A836A59A41D9F7CA615434B0C8705F7CAA5606D23BA8E84F41278B93AC54100640439DE0BDB320004D43C63716C7C399D30917DCFBBA9CD9BA8469F5B156168B24CED3F7248AC8769F27244EB73B92EED8862C
310
B7F13E0C179B3C8F979C8ECD82BBBABDAA2BAC924E9558448CBD9330242CFA08E3154B5651FCC6D215639C8EE5774DBE2B5F6CF2B5768B68963BB5F5588420E442FC700B1139D4CB01F450C1E918227C2E09DF070D8140C84E1E9AAB8F1340832A9CB13130A5F1376A908D57309505ECF2A0DF179C4E9D30F5B239B87E3823
310
7A79C6F31DE1A8A5AEC08474B03C7837EAE4938639B44E5932B833D2C6B6B279CDC613877FA26EE21F4A2A4C63EC7F29A2F301D1F9F7A0E37D145F504B0304140006080800CC70623B9C113CC27E0000009D0000000B0000006662782F636E782E786D6C4DCCDF0A83201C86E15B91DFB94BFB330DD428C8FB886521330DA7
310
6397BF1A1DECE883878F57749FCDA1B7892F1BBC047A23808C7F84D9FA55424E0BE6803A256208E9EF06C84F9B91703228B1C690F78B66B34CD9A5439DF5CF0BFBF65E35BCA1B8D6A5C6F540381E886698B5741C695F9503EBA150A2F8958E3DC3EA0B504B0304140006080800CC70623B7DF2F77C2A010000120200003100
310
00006662782F41393633353835312D344632462D344230382D423046372D3739314545314133324237412F636F72652E786D6C8D51DB8EC22014FC15C2939B0D2DB4B45643319AE817EC0F6041255A68B86CFCFC856D4D76DF7CE190393373060EDB3DC707F856CE6B6B7A480A0C81328395DA5C7B18C3057510EC3873D686
310
3F34088C18550F330C39BB3A1BA7051AAC09CA84841A2BD5020AEF55806078A44B0FFD7053A328440C89E1EFC52486BBB8AA8214A99D789CF9E05200300FC927E4FB4D5B375D43103D5527440FB843077C5AA3F5861C8F645F5787F59E95B390B318B55CE45AA638FAA2957BD7248B390B7A7CC51F9C124149C82B8C378810
310
84AB2F42B7B8DD56F413775B8C5999E9FF4471926F8AA236A1AE96B8B3CC434E5839373893369E1FAF30EA395917409EB7F26AF8801C171837A4A6AC9C89E9F9C9B1A58BA30FD6A5EF5DDDCF894B9AD9B6A59C957943A9FCAE2FD5BC4DFE03504B0304140006080800CC70623BAD7543B64E01000033030000300000006662
310
782F41393633353835312D344632462D344230382D423046372D3739314545314133324237412F636E782E786D6CD593CD6EC32010845F0571AD6CE3D48AD20813A9873E410FBD12D82434182C7EAAE6EDBB2424CD25871E7B41D6EC30B3FA84F9E67BB2E40B4234DE8DB46F1925E094D7C6ED479AD3AE5951B2113C789FEE
310
6C943839C1488B4C05DF079FE72A69D8C96C13AAD6B8631503449F83828872B949AC57D26200B826A308D316B4064D6E46FCDA41C05550DC9E483A00797BFD207EFB092A45DE9514C1BBD22178396BD39D891265658C238DEA00936C654E5E433CB65A26D9F6EDB5EBC14EBF49A45CB856E66048291F6939A9A81BB5C89177
310
38143CA680F4AA299D66A042CEB3354A2684DC9D8D178FE0D9B8B41CAAD720F880EE7EF93C0C18769E099ECC04D5A102C8049A8A05632F4DDF376CF1DE0F6BB65C2F8627B65A33C6BB62177CEBBDAD973006829F89F22E814B54F4BC2BE347F8AA8F681390B50FA73F804400B5F542E796F19FF974E7F78DB802FE05E20750
310
4B0304140006080800CC70623BE75B7789680500003C100000340000006662782F41393633353835312D344632462D344230382D423046372D3739314545314133324237412F6F626A656374732E786D6CAD575B8F9B3818FD2B887D06C22499CB8AA1CA655245D5B455A356FB305264C061D8018C6C3393D95FBFC7600890
310
A4CD5EF210B0B1BFEBF98E3F7B1FF6596ABC522E1296DF9BAE3D320D9A872C4AF2F8DE2CE5CEBA358D0FBEC719939D65A691938CDE9B6ADAF4BD98B3B2D05311DD91329583D9D5FC0F438434A7A611A644887B5384CF34233629258BA878B12322891DEFF6B66BD70BFB62634E8AE781D082709A4B588AF91C528CDA28B73F
310
1C998EEF39EABBEFA97FBD6A7C7E9553F9D3D79FE442923C3C523610337627CB87ABE99D359D4CC6D6E4FACAB5E6ABF9D2726FC6A3C5F56271377BB88362213924694B38DD99FE47C48627A1E7D49F5A8BB5E1A74C0A599ED3B0F21F1E56366B89112D681E218F0915D0D6F17AD41FBA2A369DCF6335D62ABBD39779D5DDD1
310
11D4D8DE3CBB96B2E04FB8202E41051754A1AA8E8F76B4C6DFE810B580B1547F4B84911149794252234D024EF8BBE963A95AE27B3D310A9D5C215C7960FAEE415ED75694C6AFB17BCACA5D99A60A9AA65F217B0BFC53292ACB92BF283FAD0D3621576592CB5BED907C2FA8E9DF794E35E97BEA31BED21FEB401ABB94C44839
310
DCACBF0E1C5DA8DA5B2F4DFFD32AD86F543D9E565E7056502E157C00AD2671CD534549AB752FCA9CDA00677A313F04E51B22FF19E57B300579E3C97EB29F682D92935CEC18CF901B7B54FD8C51F362B56FC72FE0B3C1EAE335EDCCBF5AEC39ADB17DC238973F804BA5E6F6BFE7AF1FB32E523BE9F3BD571418E3631DCA4D48
310
5250CF639223210A9446CA30052EDF057BD35F8329C1ECD84552BF0DC8D18BE7BCE23BFE6BD960AB4A7DE79923A103BEBD80F911CBAA2C60DB19B01CF164A5583B772EE6D3FFA56666CBCDA74DC97724A48F9A58967497E489C4D979006FD7A05E227A1EBDD0F737C623387A9C844D3709995625106D157315F8B8392CD4E0
310
A0B9A720C4BE9829CEF37EA1E13111214D53925356365ADA634861B52519DD27A00AEB808EAF0628E6F435519D446F45CF2C9CF5214F0A15B2F6D06B79DA3EE3CBF7F56780D2F4E7EF73A0F5E5B02A38D07DC852C6B7C1FBB6664213E0C39E3EBA7FF4E1AD23EA2829407C85E586727488B751B2DB9502BC7B228A3FD68B6E
310
A65A22397E690AA8D158D7E404EC8CDA235CC3B7D1898680131CEC2CDF2638C65196279577750F15884AEE19F94199155B92B13297978469D4F8D358DF0AEF7631E28DC8F0D9F437D5D39A83B2231A1D52D543813A824EF8D44BCFF2FA6A31BD1E8DAD87F1CCB526B3879935BF59CDADD5C37479BB1CDD4CA7B3556B516589
310
EF352754B706114D9C885EC9131DE6EFEB43D99AFE2391C2F958179413D7CFEF6B1B6DB1E7600F00DE6E5C67454A339A4BA2E0FBA85ED26F045D454F463DBFCE484C2F90F2E5E3666003662ED8F755951A7D1BECD5B30B550B2785C8E7320B7292A4838DDA71BBC863ED7613CAF659337A3354231D4FF4A182A54904C2898C
310
98B28C4AD0CE056CCF332A80986E571EE9DBC305BB5FEB7E509220A58D25CF042D712A806AC0AD0C657FDEF80D2D9CEAA2EE4D1C76F60BFE74219A06527D6F82DF6412526107381E55E353090704D085B52408A8913C4ED159D79BDA71BB4BC506F4831350EB6F975CD22D69BF7AC49B91A2C0A9DDA3D5CA36AD20FC478E37
310
E61844E2352865EBCB61A275A65283CAAA9DD27703B4102F5AF51EF5F573B75CBB5AD38BC845F7A49F82A0966A49C2E3EA5EA0ECD326CD965F1DB402C6FA8B51A4658C5C5E2EC9E214602E55810345408596591009A82E7E7FFACA19EEA299B14A0081A705CB3296EBC14CDF658DCD336EA6D1136881AAEB87B81AB9EE53D5
310
F5EB8BC8362082DA24122F98680A4E7930C01A0079749CEA14382A0783E5EBA5A10F8C098456A03D6A4AEB6BB881E2513747552A5DB22C7EDAF83BD5528081A365F7FF06504B0304140006080000CC70623B000000000000000000000000350000006662782F41393633353835312D344632462D344230382D423046372D37
310
39314545314133324237412F76657274696365732E62696E504B0304140006080800CC70623BF270F1330600000004000000360000006662782F41393633353835312D344632462D344230382D423046372D3739314545314133324237412F747269616E676C65732E62696E636660600000504B0304140006080000CC7062
310
3B000000000000000000000000370000006662782F41393633353835312D344632462D344230382D423046372D3739314545314133324237412F617474726962757465732E62696E504B0304140006080800CC70623B08DA0BD19000000041010000360000006662782F41393633353835312D344632462D344230382D4230
310
46372D3739314545314133324237412F6469726563746F72792E786D6C858F410AC3201045AF22B36F53E9A60B35CBEEBAE80D244E44489C6234F4F835464A48035D0DF398FF9F8AF63D0E6CC63039F212F8F9020C7D47C6792B21C5FE7403D62A1188E2E60C98D7234A5830286103A55745067B9D86B8A3CF9C7F90C11DE6
310
07FB144396D7B6A82D282E9A152AD114D5EF2CB866EEE831B8EEA07A7BB5A8D7D61A2BAAEB7FD5F70921FF497D00504B0304140006080800CC70623BEDD1DC58FD000000A00100003B0000006662782F41393633353835312D344632462D344230382D423046372D3739314545314133324237412F7265736F75726365732F
310
636F72652E786D6C8D504B6E833010BD0A9A6D65B00922041947112427E8052C33A156828DFCA97AFC9A40A576D7CDCCE87D344F8F9FBFE667F689CE6B6B3A6039850C8DB2A336530731DC4903D95970676DF82583CCC8193B5861107C72362E3BA4AC096842428D1D7107A5F7182053CF7474E0D507CE32973124857FE48B
310
540F3961CEF244279DE03EB81420DB9EAC1384436FA353E879B1B182C7A8C75DA3C7F453DF353A1075D537A7BA6464B8F535A99AE14A9A2BBD90E350DD183B5CFABE3AF262350B1EF4FC9351399401471025A527C218A1E53BAB5A5AB765F5469B96525EACF23FA6B88CFF34456DC2A1DCE36E360F82A5202F42F062ED2BAD
310
579969AFDD8A6F504B010214000A0000080000CC70623B3DEE336E79000000790000001B00000000000000000000000000000000006175746F6465736B2D64657369676E2D7061636B6167652E786D6C504B01021400140006080800CC70623BD486FD9CA0000000F40000001300000000000000000000000000B20000005B
310
436F6E74656E745F54797065735D2E786D6C504B01021400140006080800CC70623B853B8169EB0000007C010000080000000000000000000000000083010000636F72652E786D6C504B01021400140006080800CC70623B55019EA25F0000007C000000070000000000000000000000000094020000636E782E786D6C504B
310
01021400140006080800CC70623BDBABAAF470010000D40300000C00000000000000000000000000180300006662782F636F72652E786D6C504B01021400140006080800CC70623B9C113CC27E0000009D0000000B00000000000000000000000000B20400006662782F636E782E786D6C504B01021400140006080800CC70
310
623B7DF2F77C2A010000120200003100000000000000000000000000590500006662782F41393633353835312D344632462D344230382D423046372D3739314545314133324237412F636F72652E786D6C504B01021400140006080800CC70623BAD7543B64E010000330300003000000000000000000000000000D2060000
310
6662782F41393633353835312D344632462D344230382D423046372D3739314545314133324237412F636E782E786D6C504B01021400140006080800CC70623BE75B7789680500003C10000034000000000000000000000000006E0800006662782F41393633353835312D344632462D344230382D423046372D3739314545
310
314133324237412F6F626A656374732E786D6C504B01021400140006080000CC70623B0000000000000000000000003500000000000000000000000000280E00006662782F41393633353835312D344632462D344230382D423046372D3739314545314133324237412F76657274696365732E62696E504B01021400140006
310
080800CC70623BF270F133060000000400000036000000000000000000000000007B0E00006662782F41393633353835312D344632462D344230382D423046372D3739314545314133324237412F747269616E676C65732E62696E504B01021400140006080000CC70623B0000000000000000000000003700000000000000
310
000000000000D50E00006662782F41393633353835312D344632462D344230382D423046372D3739314545314133324237412F617474726962757465732E62696E504B01021400140006080800CC70623B08DA0BD1900000004101000036000000000000000000000000002A0F00006662782F41393633353835312D344632
310
462D344230382D423046372D3739314545314133324237412F6469726563746F72792E786D6C504B01021400140006080800CC70623BEDD1DC58FD000000A00100003B000000000000000000000000000E1000006662782F41393633353835312D344632462D344230382D423046372D3739314545314133324237412F7265
310
736F75726365732F636F72652E786D6C504B0506000000000E000E0080040000641100000000
  0
XRECORD
  5
22F6
102
{ACAD_REACTORS
330
1F7
102
}
330
1F7
100
AcDbXrecord
280
     1
102
MATERIAL
148
0.0
149
0.0
149
0.0
 93
        0
 94
       63
282
     0
 72
     1
 77
     1
171
     1
175
     1
179
     1
273
     0
  0
XRECORD
  5
1F8
102
{ACAD_REACTORS
330
1F7
102
}
330
1F7
100
AcDbXrecord
280
     1
 70
     1
 90
429727718
  1
30362254-06B7-45E0-A893-8CFA70E3D6BC
310
504B03040A0000080000CC70623B3DEE336E79000000790000001B0000006175746F6465736B2D64657369676E2D7061636B6167652E786D6C3C3F786D6C2076657273696F6E3D22312E302220656E636F64696E673D227574662D3822203F3E3C666F726D6174733E3C666F726D61743E687474703A2F2F736368656D612E
310
6175746F6465736B2E636F6D2F64657369676E2D7061636B6167652F323030393C2F666F726D61743E3C2F666F726D6174733E504B0304140006080800CC70623BD486FD9CA0000000F4000000130000005B436F6E74656E745F54797065735D2E786D6C7D8EC10E82300C865F65E91D8A1E8C310C0EEA1BF002731658846E
310
D98AC1B77784ABF1D8FE5FBFBF75BBCE937A534CCEB38643598122B6FEE978D0B0485F9C41B54DDD7D022595594E1A469170414C76A4D9A4D207E29CF43ECE46F218070CC6BECC4078ACAA135ACF422C856C0E68EA1BF5669944DDD7BCDE7B1F8E415D77AECB980613C2E4AC91FC167A2B244592486606FC29C8FD7F045B9A
310
EF7053A7E60B504B0304140006080800CC70623B1EC5D7A3EB0000007C01000008000000636F72652E786D6C8D90416EC3201045AF82665B6103C6756C6122AB4D4ED00B204C5C94182C03558F5F9C3852BBEB6A467FFE9B197D71FC9E6FE8CBACC17AD7032D0820E3B41FAD9B7A48F1820F808E52ACDEC75F36404ECDA687
310
4D0629A6D5A76597B477D1B89855E747B38B2A041301E95B6E7A08FAD3CCAA50296647B8168BD2573599823EBB0CA76447F43862C7BCCF5EAC59410E4DDD9C7973C2755553CCCFA4C603E3040F1565ED3B1FDE4E432BCA0D9622DAF9795FAF464533826484B498524CD807E51D79ED187F21878E10516EF63F505AC67F42C9
310
BA58B1FDDD071640D2FCC87D2045B96591CB3DA85CB7DCE40F504B0304140006080800CC70623B55019EA25F0000007C00000007000000636E782E786D6C4DCB3B0E80201045D1AD90E915ED2CF8AC45050C11660C8261F98AB1B07AC9C97D42D718D865D3E909258CFD00CCE24AC6E326A164D74DC0B4128928FF32603847
310
2BA13128B1252AC747C6BAB984FC68F0B87FE8960A5C09FE86CFB69FBA01504B0304140006080800CC70623B8C9102E971010000D40300000C0000006662782F636F72652E786D6CC5535B6E833010BC8AE5DF0A6C08340F1947A84D4ED00B38C6A128602363A31CBFCB234A53A551FA553EC09AD9F5CE8C31DB9E9B1AF5CA
310
7695D1198E428A91D2D214952E33ECDD315861B4E5CC1AE3BE9561A445A3323CC098B3D21ADFCE9034DA29ED00D5A6503328BA4E398C640D8B0C77F253352214DE4145770A5B214FA2546114020D759C75CE8200340D19DE981F0F6746269C33EFAB6266AB02A655C74A59CCF365BADC27CB5D902ED22848F6340DF238A141
310
BE88E2F57B92BFEDF23523433367AE6A2EEAA455C2A902F398D2751045018D3FA264435F3771F242571B4A1919CA6F9A7C5B3CD9E42BED16F12C776AEB308F40C848FC700B1139D4891EF410CEC810227CC6846F8386402064270EF5C5C709A05E49676C024C61FC95EA45ED154CA5211D1FF4FB8291A913A68E9B83EBBB33
310
E2A7673CDE118E5AE8124C0807CB8377834E366998436B950D7A7746DAD846D4CFD978E0F04FD455FC5D49D2D4C6FE9722321F10997F0F32DC47FE05504B0304140006080800CC70623BFFEA85907E0000009D0000000B0000006662782F636E782E786D6C4DCCD10A83201886E15B91FFDC95D95A811AB6F23E625948A6C3
310
E9D8E5AF46073BFAE0E1E365ED67B3E8ADC3CB78C7815C7240DA3DFC64DCC221C519D7805AC182F7F1EF06C88D9BE6703008B6049F9E274D7A1E938DBB5AE3D6131B2589BA0D3D965551E0B2EA732C9B9A624AAEB41E3A557677029960D9AFB4EF11165F504B0304140006080800CC70623B4FEEA4082C0100001202000031
310
0000006662782F39464131463745442D413632322D343644302D413938332D3331353338454246344243312F636F72652E786D6C8D515B6EC32010BC0AE2AB55850DD871ED0813254D72825EC00192A2C460F1A872FC42ED48ED5F7E00CDCECCCEB26C731F6FE05B39AFADE921293004CA082BB5B9F43086336A21D870E6AC
310
0D7F68109861543DCC30E4ECE26C9C164858139409093556AA051CBC570102714B8F1E7AF1A5C6A11862480C7F2DA6415C878B2A4891CA89C7990F2E050073937C42DE1DB7E4F87ED8A36D4329AA9B3D46DBAEAD504556557BD81DEBDD0761E52CE42C462D17B996298E3E6BE59E35C962CE821E1FF18553435012728A7187
310
0841987E927A8D9B35ADDF70BBC6989599FE4F1427F9A4286A132ABAC49D651EF234CD5CE04CDA78BA3DC2A8FB645D00B9DF8B57E215725C60BCA2A463E54C4CE327C7A65E1C7DB02E7DEFCBF594B864C5CA6CDBD49C957943E9FA5D5FBAF336F90F504B0304140006080800CC70623BAD7543B64E01000033030000300000
310
006662782F39464131463745442D413632322D343644302D413938332D3331353338454246344243312F636E782E786D6CD593CD6EC32010845F0571AD6CE3D48AD20813A9873E410FBD12D82434182C7EAAE6EDBB2424CD25871E7B41D6EC30B3FA84F9E67BB2E40B4234DE8DB46F1925E094D7C6ED479AD3AE5951B2113C
310
789FEE6C943839C1488B4C05DF079FE72A69D8C96C13AAD6B8631503449F83828872B949AC57D26200B826A308D316B4064D6E46FCDA41C05550DC9E483A00797BFD207EFB092A45DE9514C1BBD22178396BD39D891265658C238DEA00936C654E5E433CB65A26D9F6EDB5EBC14EBF49A45CB856E66048291F6939A9A81BB5
310
C8917738143CA680F4AA299D66A042CEB3354A2684DC9D8D178FE0D9B8B41CAAD720F880EE7EF93C0C18769E099ECC04D5A102C8049A8A05632F4DDF376CF1DE0F6BB65C2F8627B65A33C6BB62177CEBBDAD973006829F89F22E814B54F4BC2BE347F8AA8F681390B50FA73F804400B5F542E796F19FF974E7F78DB802FE05
310
E207504B0304140006080800CC70623B16AB87BA640500003C100000340000006662782F39464131463745442D413632322D343644302D413938332D3331353338454246344243312F6F626A656374732E786D6CAD575B6FA33818FD2B887DE6924B3BED8A326A92B68A663B534DD4D13E548A0C38942D60649B369D5FBFC7
310
600890A493BDE42160637FD7F31D7FF63E6FB3D478A55C242CBF3247B66B1A340F5994E4F19559CA8D75611A9F7D8F33263BCB4C232719BD32D5B4E97B316765A1A722BA21652A07B3B7B33F0D11D29C9A46981221AE4C113ED38CD8A4942CA2E2C58E882476BCD9DA23BB5ED8171B73523C0F841684D35CC252CCE79062D4
310
468DFA43D7747CCF51DF7D4FFDEB5593E3AB9CCA9FBEFE241792E4E19EB28198C968BAB8199F5D5A67D3E9C49A9E8F47D6EC76B6B0469F26EEFC7C3EBFBCBEB98462213924694B38DD98FE1D62C393D073EA4FADC5DAF04326852CCF6958F90F0F2B9BB5C48816348F90C7840A68EB78EDF68723159BCEE7891A6B95DDE9D3
310
BCEAEEE8086A6C6F9E5D4B59F0175C10A7A0820BAA5055C7473B5AE3CFDD452D602CD5DF12616444529E90D448938013FE6EFA58AA96F85E4F8C42275708571E98FE6827AF6B2B4AE3D7D83D64E5A64C53054DD3AF90BD06FEA9149565C94FCA0F6B834DC85599E4F2423B24DF0B6AFA979E534DFA9E7A4CC6FA631D486393
310
921829879BF5D781A373557BCB85E97FB90DB62B558F8795179C15944B051F40AB495CF35451D26A4727654E6D8033BD98EF82F21D91FF8AF2DD9982BCF1643BDD4EB516C9492E368C67C88DED563FC36D5EACF66DFF057C3658BDBFA69DF9578B3DA735B64F18C7F20770A9D45CFCF7FCF563D6456A277DBEF78A02637CA2
310
43B90A490AEAB94F72244481D24819A6C0E59B606BFA4B3025981DBB48EAB701D97BF19C577CC77F2D1B6C55A9EF3C732474C0B727303F625995056C3B02963D9EAC146BE78EC5FCEC7FA999EBC5EACBAAE41B12D27B4D2C0BBA49F244E2ECDC81B76B502F113D8F5EE8FB1BE3111CDD4FC2AA9B844CAB1288B68AB90A7CDC
310
1C166AB0D3DC5310625FCC14E779BFD0709F8890A629C9292B1B2DED31A4B0DA928CEE135085754027E3018A397D4D5427D15BD1330B677DC8934285AC3DF45A9EB68FF8F2B8FC0A509AFEECFD0FF2DE25CC6047F7214B195F07EFEB9A094D800F7BFAE8FED187B78EA8A3A400F115961BCAD1215E47C966530AF0EE8128FE
310
58CEBB996A8964FFA529A046635D9353B0336A8F700DDF46271A024E70B0B37C9DE01847591E54DED53D54202AB947E4076556AC49C6CA5C9E1226B7F1A7B1BE15DEED62C41B91E1B3E9AFAAA735036547343A925075041DF0A9979E893B391F8FCFA6967B3EFB644DCF6E5CEBFAE272625DCC6FAF3FB93793C5F90CE1EF57
310
407342756B10D1C489E8953CD1617E5CEECAD6F4EF8914CE5D5D504E5C3F1F9736DA62CFC11E00BCDDB8CC8A9466349744C1F75EBDA4DF09BA8A9E8C7A7E9991989E20E5DBDD6A6003664ED8F7A04A8DBE0DF6EAD9B9AA858342E47399053949D2C146EDB85DE4B176BB0965FBAC19BD19AA918E27FA50C1D22402E144464C
310
59462568E704B6E71915404CB72B8FF4EDE184DDAF753F284990D2C6926782963815403548A70C657FDEF80D2D9CEAA2AE4C1C76F60BFE74219A06527D6582DF6412526107381E55E353090704D085B52408D0933C4ED159D79BDA71BB4BC506F4831350EB6F979CD22D69BF7AC49B91A2C0A9DDA3D5CA36AD20FC478E37E6
310
1844E2352865EBCB6EA275A652E3836BE04EFB400BF1A2556F515F1FBB35B2AB35BD889C744FFA1004B5544B121E57F70215746DD2F5E2C1412B602CBF19455AC6C8E5E9922C4E01E65215385004546899059180EAFCF7A707CE7017CD8CDB0410789AB32C63B91E5CEBBBACB17AC6CD347A022D5075FD106377347AAABA7E
310
7D11590744509B44E205134DC1290F06580320F78E537D3D73540E06CB970B431F185308AD40BBD794D6D77003C5A36E8EAA54BA64597CD8F83BD552A080A365F7FF06504B0304140006080000CC70623B000000000000000000000000350000006662782F39464131463745442D413632322D343644302D413938332D3331
310
353338454246344243312F76657274696365732E62696E504B0304140006080800CC70623BF270F1330600000004000000360000006662782F39464131463745442D413632322D343644302D413938332D3331353338454246344243312F747269616E676C65732E62696E636660600000504B0304140006080000CC70623B
310
000000000000000000000000370000006662782F39464131463745442D413632322D343644302D413938332D3331353338454246344243312F617474726962757465732E62696E504B0304140006080800CC70623B08DA0BD19000000041010000360000006662782F39464131463745442D413632322D343644302D413938
310
332D3331353338454246344243312F6469726563746F72792E786D6C858F410AC3201045AF22B36F53E9A60B35CBEEBAE80D244E44489C6234F4F835464A48035D0DF398FF9F8AF63D0E6CC63039F212F8F9020C7D47C6792B21C5FE7403D62A1188E2E60C98D7234A5830286103A55745067B9D86B8A3CF9C7F90C11DE607
310
FB144396D7B6A82D282E9A152AD114D5EF2CB866EEE831B8EEA07A7BB5A8D7D61A2BAAEB7FD5F70921FF497D00504B0304140006080800CC70623B0D6EF93BFE000000A00100003B0000006662782F39464131463745442D413632322D343644302D413938332D3331353338454246344243312F7265736F75726365732F63
310
6F72652E786D6C8D50596E833010BD0A9ADFCA60B334011947A8694ED00B586642AC041B79A97AFC9A40A5F6AF3F33A3B7689E1E3F7DCD8FEC139DD7D6F4C0720A191A65476DA61E62B892236427C19DB5E1970C322367EC618541F0C9D9B8EC90B226A009093576C41D94DE63804C3DD2D18357379C652E63480A7FCF17A9
310
EE72C29CE5894E3AC17D702940B63D59270887DE46A7D0F36263058F518FBB468FE9A7BE6A7420864373B8D4873369AA8691FA421B3294352543C5CAF65C0F6FEF43CB8BD52C78D0F34F46E550061C419494B6843142CB0F5677F4B52BEB177AEC28E5C52AFF638ACBF84F53D42654E51E77B379102C05791282176B5F693D
310
CB4C7BED567C03504B010214000A0000080000CC70623B3DEE336E79000000790000001B00000000000000000000000000000000006175746F6465736B2D64657369676E2D7061636B6167652E786D6C504B01021400140006080800CC70623BD486FD9CA0000000F40000001300000000000000000000000000B20000005B
310
436F6E74656E745F54797065735D2E786D6C504B01021400140006080800CC70623B1EC5D7A3EB0000007C010000080000000000000000000000000083010000636F72652E786D6C504B01021400140006080800CC70623B55019EA25F0000007C000000070000000000000000000000000094020000636E782E786D6C504B
310
01021400140006080800CC70623B8C9102E971010000D40300000C00000000000000000000000000180300006662782F636F72652E786D6C504B01021400140006080800CC70623BFFEA85907E0000009D0000000B00000000000000000000000000B30400006662782F636E782E786D6C504B01021400140006080800CC70
310
623B4FEEA4082C0100001202000031000000000000000000000000005A0500006662782F39464131463745442D413632322D343644302D413938332D3331353338454246344243312F636F72652E786D6C504B01021400140006080800CC70623BAD7543B64E010000330300003000000000000000000000000000D5060000
310
6662782F39464131463745442D413632322D343644302D413938332D3331353338454246344243312F636E782E786D6C504B01021400140006080800CC70623B16AB87BA640500003C1000003400000000000000000000000000710800006662782F39464131463745442D413632322D343644302D413938332D3331353338
310
454246344243312F6F626A656374732E786D6C504B01021400140006080000CC70623B0000000000000000000000003500000000000000000000000000270E00006662782F39464131463745442D413632322D343644302D413938332D3331353338454246344243312F76657274696365732E62696E504B01021400140006
310
080800CC70623BF270F133060000000400000036000000000000000000000000007A0E00006662782F39464131463745442D413632322D343644302D413938332D3331353338454246344243312F747269616E676C65732E62696E504B01021400140006080000CC70623B0000000000000000000000003700000000000000
310
000000000000D40E00006662782F39464131463745442D413632322D343644302D413938332D3331353338454246344243312F617474726962757465732E62696E504B01021400140006080800CC70623B08DA0BD190000000410100003600000000000000000000000000290F00006662782F39464131463745442D413632
310
322D343644302D413938332D3331353338454246344243312F6469726563746F72792E786D6C504B01021400140006080800CC70623B0D6EF93BFE000000A00100003B000000000000000000000000000D1000006662782F39464131463745442D413632322D343644302D413938332D3331353338454246344243312F7265
310
736F75726365732F636F72652E786D6C504B0506000000000E000E0080040000641100000000
  0
XRECORD
  5
22F8
102
{ACAD_REACTORS
330
173
102
}
330
173
100
AcDbXrecord
280
     1
102
MATERIAL
148
0.0
149
0.0
149
0.0
 93
        0
 94
       63
282
     0
 72
     1
 77
     1
171
     1
175
     1
179
     1
273
     0
  0
XRECORD
  5
175
102
{ACAD_REACTORS
330
173
102
}
330
173
100
AcDbXrecord
280
     1
270
     1
271
     1
  0
XRECORD
  5
174
102
{ACAD_REACTORS
330
173
102
}
330
173
100
AcDbXrecord
280
     1
270
     1
271
     1
  0
XRECORD
  5
1FB
102
{ACAD_REACTORS
330
173
102
}
330
173
100
AcDbXrecord
280
     1
 70
     0
 90
1673772943
  1
ECE7A1D2-D628-4531-984C-D00F80459256
310
504B03040A0000080000CC70623B3DEE336E79000000790000001B0000006175746F6465736B2D64657369676E2D7061636B6167652E786D6C3C3F786D6C2076657273696F6E3D22312E302220656E636F64696E673D227574662D3822203F3E3C666F726D6174733E3C666F726D61743E687474703A2F2F736368656D612E
310
6175746F6465736B2E636F6D2F64657369676E2D7061636B6167652F323030393C2F666F726D61743E3C2F666F726D6174733E504B0304140006080800CC70623BD486FD9CA0000000F4000000130000005B436F6E74656E745F54797065735D2E786D6C7D8EC10E82300C865F65E91D8A1E8C310C0EEA1BF002731658846E
310
D98AC1B77784ABF1D8FE5FBFBF75BBCE937A534CCEB38643598122B6FEE978D0B0485F9C41B54DDD7D022595594E1A469170414C76A4D9A4D207E29CF43ECE46F218070CC6BECC4078ACAA135ACF422C856C0E68EA1BF5669944DDD7BCDE7B1F8E415D77AECB980613C2E4AC91FC167A2B244592486606FC29C8FD7F045B9A
310
EF7053A7E60B504B0304140006080800CC70623BD9DDAED0EC0000007C01000008000000636F72652E786D6C8D90416EC3201045AF82665B61836D9CD8C2444DD39CA01740405C94182C03558F5F9C3852BBEB6A467FFE9B197D7EF89E6EE8CB2CC17A37002D0820E394D7D68D03A478C17B4007C117EFE32F1B20272733C0
310
2A83E0E3E2D3BC49CABB685CCCAAF3DA6CA20CC14440EA969B0182FA34932C648AD911AEC52CD5558EA6A0CF2EC329598D1E47ACCEFBECC59A050463A7EA5833865FEBDD0E37353BE3EE8DBDE3F6786A48D375FBF6CC78B9C282473B3DEFABC5C86834888A900E538A49F5419B9EB47DD5BC907D4F082F57FB1F28CDFA9F50
310
B22ED6D5F6EE030B20687EE43E10BC5CB3C8E51E54AE6B6EE207504B0304140006080800CC70623B55019EA25F0000007C00000007000000636E782E786D6C4DCB3B0E80201045D1AD90E915ED2CF8AC45050C11660C8261F98AB1B07AC9C97D42D718D865D3E909258CFD00CCE24AC6E326A164D74DC0B4128928FF326038
310
472BA13128B1252AC747C6BAB984FC68F0B87FE8960A5C09FE86CFB69FBA01504B0304140006080800CC70623BA24EB22D72010000D40300000C0000006662782F636F72652E786D6CC5535B6E833010BC8AE5DF0A6C5E49888CA3A6694ED00B38E05014B091B1518EDFE511A5A9D228FD2A1F60CDEC7A67C6986DCE4D8D7A
310
69BA4AAB0C073EC548AA5C17952A33ECECD15B61B4E1CC686DBF9561A44423333CC098B3D268D7CE50AE9595CA02AA74216750749DB418E5352C32DCE59FB211BE70162ABA93DF8AFC244AE9073ED050C759670D0840D390E18DF9F1706664C23973AE2A66B62A605A75ACA4C13C4976E1364A12EF355A2EBD384AF65EFA96
310
BC7B8BED2EA6719AAE16FB8491A199335B351775B991C2CA02F390D2D40B028F861F41BCA68B7518BFD0D59A524686F29B26D7164F36B94AD9289CE54E6D1DE6010819891F6E21228B3AD1831EC219194284CF98F06DD01008846CC5A1BEF83801D4CBDC6A1303536877A57A513B0953A94FC707FDBE6064EA84A9E3E6E0FA
310
EE8CF0E9198F7784A316AA0413C2C2F2E0ECA0934D1AE6D05A69BCDE9E91D2A611F573361E38FC1375157F5752AE6B6DFE4B11990F88CCBF0719EE23FF02504B0304140006080800CC70623B408A7D3B7C0000009D0000000B0000006662782F636E782E786D6C4DCCD10A83201886E15B91FFDC552A92A0064DBC8F581632
310
D3703A76F9ABD1C18E3E78F878E5F0D9027ABBFCF2292AE86E2D20171F69F6715550CB827B40839639A5F2770314A7CD293819B45C73AAFB45B35BA61ACAA1C1C7E7855C58C15BC331339661262CC762340413D68D77DA5B42298546CBE6573AF60CEB2F504B0304140006080800CC70623B449FB9BD290100001202000031
310
0000006662782F36394639363044362D344446342D343946362D394244322D3234314243333846323333332F636F72652E786D6C8D515B6EC32010BC0AE22B55850D98B871848994463E412FE002495162B07854397EA176A4F62F3F2C9A9D991D587EB84F37F0AD7D30CEF6905418026DA553C65E7A98E219ED203808EE9D
310
8B7F6810D871D23D2C3014FCE25D9A57483A1BB58D19B54EE9151C43D0110279CB971E06F9A5A7B11A53CC8C70ADE6515EC78BAE4895DB992778883E0700CB907242D17643D7E2538BD869608875438BBAE38922CAC8F1BDD90DB4691A5E2F42C153326A951B95E398B3D1FE599322163C9AE9115F7A3D46ADA0A018778810
310
84E907617BDCEE297BC5BB3DC6BC2EF47FA234AB2745C9D8D8D035EE220B50105E2F0DC1954B9FB747187D9F9D8FA0CCDB042D5FA0C015C65B42DF78BD10F3F3B363CB56C7109DCFDFBBB97E662ED92EB62D13BC2E1BCAE5777DB9966D8A1F504B0304140006080800CC70623BAD7543B64E01000033030000300000006662
310
782F36394639363044362D344446342D343946362D394244322D3234314243333846323333332F636E782E786D6CD593CD6EC32010845F0571AD6CE3D48AD20813A9873E410FBD12D82434182C7EAAE6EDBB2424CD25871E7B41D6EC30B3FA84F9E67BB2E40B4234DE8DB46F1925E094D7C6ED479AD3AE5951B2113C789FEE
310
6C943839C1488B4C05DF079FE72A69D8C96C13AAD6B8631503449F83828872B949AC57D26200B826A308D316B4064D6E46FCDA41C05550DC9E483A00797BFD207EFB092A45DE9514C1BBD22178396BD39D891265658C238DEA00936C654E5E433CB65A26D9F6EDB5EBC14EBF49A45CB856E66048291F6939A9A81BB5C89177
310
38143CA680F4AA299D66A042CEB3354A2684DC9D8D178FE0D9B8B41CAAD720F880EE7EF93C0C18769E099ECC04D5A102C8049A8A05632F4DDF376CF1DE0F6BB65C2F8627B65A33C6BB62177CEBBDAD973006829F89F22E814B54F4BC2BE347F8AA8F681390B50FA73F804400B5F542E796F19FF974E7F78DB802FE05E20750
310
4B0304140006080800CC70623B8D05915C650500003B100000340000006662782F36394639363044362D344446342D343946362D394244322D3234314243333846323333332F6F626A656374732E786D6CAD575B6FA33814FE2B887D06429276DA1565D4266D158D3A339A6846FB502932E050B66023DB74D2FDF5FB190C01
310
9276B2973C046C8ECFF53B17071F77456EBD502133CEAE6CDF9DD81665314F32965ED995DA3A17B6F5310C04E7AA47665B8C14F4CAD6DB7618A48257A5D94AE89654B91AEDDEDDFC61C998326A5B714EA4BCB265FC440BE2924AF184CA6737218AB8E976E7FA6E4338649B0A523E8D98964450A6A029F619B8588D52FE7039
310
B1BD30F0F4F730D0FF866AF6369557DB33949F31A9088B0F848DD8CCFCF9F2767A76E99CCDE733677E3EF59D9BBB9BA5E37F984D16E78BC5E5F5ED25044B25C0C96822E8D60EEFE11B91C581D77CEA34368A1F5329E68CD1B8B61F16D63A1B8E092D294B10C78C4A48EB593D192E7DED9BDEE7995E1B91FDEDD3ACEA9FE831
310
6A756F9F7D4D79F4274C90A7A04248AA51D5F8C718DAE06FB2F75AC4796EBE65D22A88A22223B995679120E2D50E41AA49C260C046A35368846B0BECD0DFF3EBEB8AD4F835768F69B9ADF25C43D30E6B646F807FAA64AD59F61715C7A54127C4AACA98BA3006A9D792DAE165E0D59B61A01FB3A9F9D838D2DAE62445C86166
310
F37564E842E7DE6A69879FEEA2DD5AE7E371E1A5E025154AC307D06A03D73EB5978C58FFA4C8E9033066E0F3BD53BEC1F39F91BE7B55103791EDE6BBB991A2046172CB4581D8B893FA674DDA17A77B3B7C413D1B511FD2743BFF8A38F03A658705E3ADF8015C3A3417FF3D7E439FF591DA0B5F18BC20C1B8981957AE6392A3
310
F43C640C01D1A0B4728E2DD4F26DB4B3C3152A252A3B4E913CEC1C72F012782FF88EFF8637AA552DBEF76408E8A8DE9E50F9E1CB3A2DA0DB1B6039A893B56063DC5B3E3FFB5F72E67AB9FEB4AEC496C4F4C1149625DD662C53E89D7BF0F6151A046260D1337DFDC94502430F83B0EE07A130A224BCAD7DAE1D9FB6CD422FF6
310
920702629C4BB9AE79C12F243C6432A6794E18E5552BA56B431AAB5D91317302B2B071E86C3A42B1A02F999E24061403B5D0EB639195DA655DD3EBEAB4FB862DDF579F014AD0E73C22F99E28DA57FB98E75C6CA2D74D53086D600F4786E0FE3144B771A8A7B900F03594DB8A633CBC49B2EDB69228BB479CF863B5E807AAAB
310
23872F6DFEB4129B949CA33823F58830E86D65621E10047D9DB34D862E8EAC3C2ABC2F7B2C40D67CDFE01F5545B92105AF983AC54D93D69E56FB8E797F88913F898A9FEC705D3F9D1B54EC8426FB500D40A03BD0119B06E1B95DDC7EB8F6975367793EBD70E66733DFB9BC982F9CE564727731999F5D4ECFCE3B8D6A4DC2A0
310
6D50FD148437D110834A64C6CDDF57FBACB5C307A2A477DFE4939736CFEF2B175371E0E10CF0DD1D5C15654E0BCA14D1E87DD02FF93782A162C0A3D95F1524A52770F972BF1EE9809D13CE7DD599467F8ECE9ADD85CE85A34CD45355448C64F9E8A031DC2D596ACC6E5DD93D9B82DE2EF5CAF81363A8E47996A0DE24564A79
310
4115AACE09C55E14540231FDA13C319787134EBF34E3A022514E5B4D9E0826E25C02D5805B15ABE1BEF51B26383D445DD9E875EE33FE4C22DA16427D65A3BCA92CA6D28DD01DF5DC53330704308475351050232CCD31583787BA75774AFB06E5070DD0C8EF484E19968C5D83BA5B90B244D31E54D55A372320FE4786B7EA58
310
44E135AA5467CB7EA333A61683CC6A8C3257034C10CF46F40EF9F5BE59BE5BD30C3C72D235E95D10345C1D45445A5F0BB47E46A5EBE5570F9380B5FA629579952296A773720405982B9DE04011506178964401AA8BDF1FBF0A8EAB6861DD6580C0E38217056766716DAEB2D6FA0917D3E4116581EADB879C4E7CFFB11EFACD
310
3D641311495D92C8676CB409A72D18610D803CE8A626049E8EC1887CB5B44CC39883690DDA8399B4B9855B481E7D71D4A9D22F96E5BB73BF5793020C02137BF837504B0304140006080000CC70623B000000000000000000000000350000006662782F36394639363044362D344446342D343946362D394244322D32343142
310
43333846323333332F76657274696365732E62696E504B0304140006080800CC70623BF270F1330600000004000000360000006662782F36394639363044362D344446342D343946362D394244322D3234314243333846323333332F747269616E676C65732E62696E636660600000504B0304140006080000CC70623B0000
310
00000000000000000000370000006662782F36394639363044362D344446342D343946362D394244322D3234314243333846323333332F617474726962757465732E62696E504B0304140006080800CC70623B08DA0BD19000000041010000360000006662782F36394639363044362D344446342D343946362D394244322D
310
3234314243333846323333332F6469726563746F72792E786D6C858F410AC3201045AF22B36F53E9A60B35CBEEBAE80D244E44489C6234F4F835464A48035D0DF398FF9F8AF63D0E6CC63039F212F8F9020C7D47C6792B21C5FE7403D62A1188E2E60C98D7234A5830286103A55745067B9D86B8A3CF9C7F90C11DE607FB14
310
4396D7B6A82D282E9A152AD114D5EF2CB866EEE831B8EEA07A7BB5A8D7D61A2BAAEB7FD5F70921FF497D00504B0304140006080800CC70623BCA768048FE000000A00100003B0000006662782F36394639363044362D344446342D343946362D394244322D3234314243333846323333332F7265736F75726365732F636F72
310
652E786D6C8D50596E833010BD0A9ADFCA60D600328E9AA639412F609909B1126CE4A5EAF16B0295DABFFECC8CDEA2797AECF8353F924FB44E193D409E5248504B332A3D0D10FC95B4901C39B3C6F85F3248B49871801506CE266BC2B243D2688FDA47549B11775038871E12F988C7004EDE7016A9083E2ADC3D5D84BC8B09
310
D33C8D74D471E6BC8D0192EDC93A815B742658898E651BCB59086ADC356A8C3FD555A1055ED7E7E254D615792D0F075295F585746FF53B694EE78A565DD736979A65AB9933AFE69F8CD2A2F038022F28ED489E135A7CE4554F9BBEA85E68DB53CAB255FEC71496F19FA6A0B42F8B3DEE6673C0F318E4497096AD7DC5F52C33
310
EEB55BFE0D504B010214000A0000080000CC70623B3DEE336E79000000790000001B00000000000000000000000000000000006175746F6465736B2D64657369676E2D7061636B6167652E786D6C504B01021400140006080800CC70623BD486FD9CA0000000F40000001300000000000000000000000000B20000005B436F
310
6E74656E745F54797065735D2E786D6C504B01021400140006080800CC70623BD9DDAED0EC0000007C010000080000000000000000000000000083010000636F72652E786D6C504B01021400140006080800CC70623B55019EA25F0000007C000000070000000000000000000000000095020000636E782E786D6C504B0102
310
1400140006080800CC70623BA24EB22D72010000D40300000C00000000000000000000000000190300006662782F636F72652E786D6C504B01021400140006080800CC70623B408A7D3B7C0000009D0000000B00000000000000000000000000B50400006662782F636E782E786D6C504B01021400140006080800CC70623B
310
449FB9BD290100001202000031000000000000000000000000005A0500006662782F36394639363044362D344446342D343946362D394244322D3234314243333846323333332F636F72652E786D6C504B01021400140006080800CC70623BAD7543B64E010000330300003000000000000000000000000000D20600006662
310
782F36394639363044362D344446342D343946362D394244322D3234314243333846323333332F636E782E786D6C504B01021400140006080800CC70623B8D05915C650500003B10000034000000000000000000000000006E0800006662782F36394639363044362D344446342D343946362D394244322D32343142433338
310
46323333332F6F626A656374732E786D6C504B01021400140006080000CC70623B0000000000000000000000003500000000000000000000000000250E00006662782F36394639363044362D344446342D343946362D394244322D3234314243333846323333332F76657274696365732E62696E504B010214001400060808
310
00CC70623BF270F13306000000040000003600000000000000000000000000780E00006662782F36394639363044362D344446342D343946362D394244322D3234314243333846323333332F747269616E676C65732E62696E504B01021400140006080000CC70623B00000000000000000000000037000000000000000000
310
00000000D20E00006662782F36394639363044362D344446342D343946362D394244322D3234314243333846323333332F617474726962757465732E62696E504B01021400140006080800CC70623B08DA0BD190000000410100003600000000000000000000000000270F00006662782F36394639363044362D344446342D
310
343946362D394244322D3234314243333846323333332F6469726563746F72792E786D6C504B01021400140006080800CC70623BCA768048FE000000A00100003B000000000000000000000000000B1000006662782F36394639363044362D344446342D343946362D394244322D3234314243333846323333332F7265736F
310
75726365732F636F72652E786D6C504B0506000000000E000E0080040000621100000000
  0
XRECORD
  5
176
102
{ACAD_REACTORS
330
173
102
}
330
173
100
AcDbXrecord
280
     1
270
     1
271
     1
  0
XRECORD
  5
177
102
{ACAD_REACTORS
330
173
102
}
330
173
100
AcDbXrecord
280
     1
270
     1
271
     1
  0
XRECORD
  5
231A
102
{ACAD_REACTORS
330
2319
102
}
330
2319
100
AcDbXrecord
280
     1
102
ACAD_ROUNDTRIP_2012_MLEADER_STYLE
298
     1
  0
XRECORD
  5
232C
102
{ACAD_REACTORS
330
232B
102
}
330
232B
100
AcDbXrecord
280
     1
102
DISPLAYNAME
  1
Metric50
102
FLAGS
 90
        0
  0
CELLSTYLEMAP
  5
22EC
102
{ACAD_REACTORS
330
162
102
}
330
162
100
AcDbCellStyleMap
 90
        3
300
CELLSTYLE
  1
TABLEFORMAT_BEGIN
 90
        5
170
     1
 91
        0
 92
    32768
 62
   257
 93
        1
300
CONTENTFORMAT
  1
CONTENTFORMAT_BEGIN
 90
        0
 91
        0
 92
      512
 93
        0
300

 40
0.0
140
1.0
 94
        5
 62
     0
340
11
144
6.0
309
CONTENTFORMAT_END
171
     1
301
MARGIN
  1
CELLMARGIN_BEGIN
 40
1.5
 40
1.5
 40
1.5
 40
1.5
 40
4.5
 40
4.5
309
CELLMARGIN_END
 94
        6
 95
        1
302
GRIDFORMAT
  1
GRIDFORMAT_BEGIN
 90
        0
 91
        1
 62
     0
 92
       -2
340
14
 93
        0
 40
1.125
309
GRIDFORMAT_END
 95
        2
302
GRIDFORMAT
  1
GRIDFORMAT_BEGIN
 90
        0
 91
        1
 62
     0
 92
       -2
340
14
 93
        0
 40
1.125
309
GRIDFORMAT_END
 95
        4
302
GRIDFORMAT
  1
GRIDFORMAT_BEGIN
 90
        0
 91
        1
 62
     0
 92
       -2
340
14
 93
        0
 40
1.125
309
GRIDFORMAT_END
 95
        8
302
GRIDFORMAT
  1
GRIDFORMAT_BEGIN
 90
        0
 91
        1
 62
     0
 92
       -2
340
14
 93
        0
 40
1.125
309
GRIDFORMAT_END
 95
       16
302
GRIDFORMAT
  1
GRIDFORMAT_BEGIN
 90
        0
 91
        1
 62
     0
 92
       -2
340
14
 93
        0
 40
1.125
309
GRIDFORMAT_END
 95
       32
302
GRIDFORMAT
  1
GRIDFORMAT_BEGIN
 90
        0
 91
        1
 62
     0
 92
       -2
340
14
 93
        0
 40
1.125
309
GRIDFORMAT_END
309
TABLEFORMAT_END
  1
CELLSTYLE_BEGIN
 90
        1
 91
        1
300
_TITLE
309
CELLSTYLE_END
300
CELLSTYLE
  1
TABLEFORMAT_BEGIN
 90
        5
170
     1
 91
        0
 92
        0
 62
   257
 93
        1
300
CONTENTFORMAT
  1
CONTENTFORMAT_BEGIN
 90
        0
 91
        0
 92
      512
 93
        0
300

 40
0.0
140
1.0
 94
        5
 62
     0
340
11
144
4.5
309
CONTENTFORMAT_END
171
     1
301
MARGIN
  1
CELLMARGIN_BEGIN
 40
1.5
 40
1.5
 40
1.5
 40
1.5
 40
4.5
 40
4.5
309
CELLMARGIN_END
 94
        6
 95
        1
302
GRIDFORMAT
  1
GRIDFORMAT_BEGIN
 90
        0
 91
        1
 62
     0
 92
       -2
340
14
 93
        0
 40
1.125
309
GRIDFORMAT_END
 95
        2
302
GRIDFORMAT
  1
GRIDFORMAT_BEGIN
 90
        0
 91
        1
 62
     0
 92
       -2
340
14
 93
        0
 40
1.125
309
GRIDFORMAT_END
 95
        4
302
GRIDFORMAT
  1
GRIDFORMAT_BEGIN
 90
        0
 91
        1
 62
     0
 92
       -2
340
14
 93
        0
 40
1.125
309
GRIDFORMAT_END
 95
        8
302
GRIDFORMAT
  1
GRIDFORMAT_BEGIN
 90
        0
 91
        1
 62
     0
 92
       -2
340
14
 93
        0
 40
1.125
309
GRIDFORMAT_END
 95
       16
302
GRIDFORMAT
  1
GRIDFORMAT_BEGIN
 90
        0
 91
        1
 62
     0
 92
       -2
340
14
 93
        0
 40
1.125
309
GRIDFORMAT_END
 95
       32
302
GRIDFORMAT
  1
GRIDFORMAT_BEGIN
 90
        0
 91
        1
 62
     0
 92
       -2
340
14
 93
        0
 40
1.125
309
GRIDFORMAT_END
309
TABLEFORMAT_END
  1
CELLSTYLE_BEGIN
 90
        2
 91
        1
300
_HEADER
309
CELLSTYLE_END
300
CELLSTYLE
  1
TABLEFORMAT_BEGIN
 90
        5
170
     1
 91
        0
 92
        0
 62
   257
 93
        1
300
CONTENTFORMAT
  1
CONTENTFORMAT_BEGIN
 90
        0
 91
        0
 92
      512
 93
        0
300

 40
0.0
140
1.0
 94
        2
 62
     0
340
11
144
4.5
309
CONTENTFORMAT_END
171
     1
301
MARGIN
  1
CELLMARGIN_BEGIN
 40
1.5
 40
1.5
 40
1.5
 40
1.5
 40
4.5
 40
4.5
309
CELLMARGIN_END
 94
        6
 95
        1
302
GRIDFORMAT
  1
GRIDFORMAT_BEGIN
 90
        0
 91
        1
 62
     0
 92
       -2
340
14
 93
        0
 40
1.125
309
GRIDFORMAT_END
 95
        2
302
GRIDFORMAT
  1
GRIDFORMAT_BEGIN
 90
        0
 91
        1
 62
     0
 92
       -2
340
14
 93
        0
 40
1.125
309
GRIDFORMAT_END
 95
        4
302
GRIDFORMAT
  1
GRIDFORMAT_BEGIN
 90
        0
 91
        1
 62
     0
 92
       -2
340
14
 93
        0
 40
1.125
309
GRIDFORMAT_END
 95
        8
302
GRIDFORMAT
  1
GRIDFORMAT_BEGIN
 90
        0
 91
        1
 62
     0
 92
       -2
340
14
 93
        0
 40
1.125
309
GRIDFORMAT_END
 95
       16
302
GRIDFORMAT
  1
GRIDFORMAT_BEGIN
 90
        0
 91
        1
 62
     0
 92
       -2
340
14
 93
        0
 40
1.125
309
GRIDFORMAT_END
 95
       32
302
GRIDFORMAT
  1
GRIDFORMAT_BEGIN
 90
        0
 91
        1
 62
     0
 92
       -2
340
14
 93
        0
 40
1.125
309
GRIDFORMAT_END
309
TABLEFORMAT_END
  1
CELLSTYLE_BEGIN
 90
        3
 91
        2
300
_DATA
309
CELLSTYLE_END
  0
XRECORD
  5
22F1
102
{ACAD_REACTORS
330
162
102
}
330
162
100
AcDbXrecord
280
     1
102
ACAD_ROUNDTRIP_PRE2007_TABLESTYLE
 90
      512
 91
        0
  1

 92
      512
 93
        0
  2

 94
      512
 95
        0
  3

  0
XRECORD
  5
2304
102
{ACAD_REACTORS
330
2303
102
}
330
2303
100
AcDbXrecord
280
     1
102
RTVSPost2010Prop28
280
     1
102
RTVSPost2010PropOp28
 70
     1
102
RTVSPost2010Prop29
280
     1
102
RTVSPost2010PropOp29
 70
     1
102
RTVSPost2010Prop30
280
     0
102
RTVSPost2010PropOp30
 70
     1
102
RTVSPost2010Prop31
280
     0
102
RTVSPost2010PropOp31
 70
     1
102
RTVSPost2010Prop32
280
     0
102
RTVSPost2010PropOp32
 70
     1
102
RTVSPost2010Prop33
280
     0
102
RTVSPost2010PropOp33
 70
     1
102
RTVSPost2010Prop34
280
     0
102
RTVSPost2010PropOp34
 70
     1
102
RTVSPost2010Prop35
280
     0
102
RTVSPost2010PropOp35
 70
     1
102
RTVSPost2010Prop36
280
     0
102
RTVSPost2010PropOp36
 70
     1
102
RTVSPost2010Prop37
 90
       50
102
RTVSPost2010PropOp37
 70
     1
102
RTVSPost2010Prop38
140
0.0
102
RTVSPost2010PropOp38
 70
     1
102
RTVSPost2010Prop39
140
1.0
102
RTVSPost2010PropOp39
 70
     1
102
RTVSPost2010Prop40
 90
        0
102
RTVSPost2010PropOp40
 70
     1
102
RTVSPost2010Prop41ColorIndex
 90
       18
102
RTVSPost2010Prop41ColorRGB
 90
        0
102
RTVSPost2010PropOp41
 70
     1
102
RTVSPost2010Prop42
 90
       50
102
RTVSPost2010PropOp42
 70
     1
102
RTVSPost2010Prop43
 90
        3
102
RTVSPost2010PropOp43
 70
     1
102
RTVSPost2010Prop44ColorIndex
 90
        5
102
RTVSPost2010Prop44ColorRGB
 90
      255
102
RTVSPost2010PropOp44
 70
     1
102
RTVSPost2010Prop45
280
     0
102
RTVSPost2010PropOp45
 70
     1
102
RTVSPost2010Prop46
 90
       50
102
RTVSPost2010PropOp46
 70
     1
102
RTVSPost2010Prop47
 90
       50
102
RTVSPost2010PropOp47
 70
     1
102
RTVSPost2010Prop48
 90
       50
102
RTVSPost2010PropOp48
 70
     1
102
RTVSPost2010Prop49
280
     0
102
RTVSPost2010PropOp49
 70
     1
102
RTVSPost2010Prop50
 90
       50
102
RTVSPost2010PropOp50
 70
     1
102
RTVSPost2010Prop51ColorIndex
 90
      256
102
RTVSPost2010Prop51ColorRGB
 90
-16777216
102
RTVSPost2010PropOp51
 70
     0
102
RTVSPost2010Prop52
140
1.0
102
RTVSPost2010PropOp52
 70
     0
102
RTVSPost2010Prop53
 90
        2
102
RTVSPost2010PropOp53
 70
     1
102
RTVSPost2010Prop54
  1
strokes_ogs.tif
102
RTVSPost2010PropOp54
 70
     1
102
RTVSPost2010Prop55
280
     0
102
RTVSPost2010PropOp55
 70
     1
102
RTVSPost2010Prop56
140
1.0
102
RTVSPost2010PropOp56
 70
     1
102
RTVSPost2010Prop57
140
1.0
102
RTVSPost2010PropOp57
 70
     1
102
RTVSPropertyOp0
 70
     1
102
RTVSPropertyOp1
 70
     1
102
RTVSPropertyOp2
 70
     1
102
RTVSPropertyOp3
 70
     1
102
RTVSPropertyOp4
 70
     1
102
RTVSPropertyOp5
 70
     1
102
RTVSPropertyOp6
 70
     1
102
RTVSPropertyOp7
 70
     1
102
RTVSPropertyOp8
 70
     1
102
RTVSPropertyOp9
 70
     1
102
RTVSPropertyOp10
 70
     1
102
RTVSPropertyOp11
 70
     1
102
RTVSPropertyOp12
 70
     1
102
RTVSPropertyOp13
 70
     1
102
RTVSPropertyOp14
 70
     1
102
RTVSPropertyOp15
 70
     1
102
RTVSPropertyOp16
 70
     1
102
RTVSPropertyOp17
 70
     1
102
RTVSPropertyOp18
 70
     1
102
RTVSPropertyOp19
 70
     1
102
RTVSPropertyOp20
 70
     1
102
RTVSPropertyOp21
 70
     1
102
RTVSPropertyOp22
 70
     1
102
RTVSPropertyOp23
 70
     1
102
RTVSPropertyOp24
 70
     1
102
RTVSPropertyOp25
 70
     1
102
RTVSPropertyOp26
 70
     1
102
RTVSPropertyOp27
 70
     1
102
RTVSPropertyOp28
 70
     1
102
RTVSPropertyOp29
 70
     1
102
RTVSPropertyOp30
 70
     1
102
RTVSPropertyOp31
 70
     1
102
RTVSPropertyOp32
 70
     1
102
RTVSPropertyOp33
 70
     1
102
RTVSPropertyOp34
 70
     1
102
RTVSPropertyOp35
 70
     1
102
RTVSPropertyOp36
 70
     1
102
RTVSPropertyOp37
 70
     1
102
RTVSPropertyOp38
 70
     1
102
RTVSPropertyOp39
 70
     1
102
RTVSPropertyOp40
 70
     1
102
RTVSPropertyOp41
 70
     1
102
RTVSPropertyOp42
 70
     1
102
RTVSPropertyOp43
 70
     1
102
RTVSPropertyOp44
 70
     1
102
RTVSPropertyOp45
 70
     1
102
RTVSPropertyOp46
 70
     1
102
RTVSPropertyOp47
 70
     1
102
RTVSPropertyOp48
 70
     1
102
RTVSPropertyOp49
 70
     1
102
RTVSPropertyOp50
 70
     1
102
RTVSPropertyOp51
 70
     0
102
RTVSPropertyOp52
 70
     0
102
RTVSPropertyOp53
 70
     1
102
RTVSPropertyOp54
 70
     1
102
RTVSPropertyOp55
 70
     1
102
RTVSPropertyOp56
 70
     1
102
RTVSPropertyOp57
 70
     1
102
RTVSPropertyOp58
 70
     1
102
RTVSPropertyOp59
 70
     1
102
RTVSPropertyOp60
 70
     1
102
RTVSPropertyOp61
 70
     1
102
RTVSPropertyOp62
 70
     1
  0
XRECORD
  5
2302
102
{ACAD_REACTORS
330
2301
102
}
330
2301
100
AcDbXrecord
280
     1
102
RTVSPost2010Prop28
280
     0
102
RTVSPost2010PropOp28
 70
     1
102
RTVSPost2010Prop29
280
     1
102
RTVSPost2010PropOp29
 70
     1
102
RTVSPost2010Prop30
280
     1
102
RTVSPost2010PropOp30
 70
     1
102
RTVSPost2010Prop31
280
     0
102
RTVSPost2010PropOp31
 70
     1
102
RTVSPost2010Prop32
280
     0
102
RTVSPost2010PropOp32
 70
     1
102
RTVSPost2010Prop33
280
     0
102
RTVSPost2010PropOp33
 70
     1
102
RTVSPost2010Prop34
280
     0
102
RTVSPost2010PropOp34
 70
     1
102
RTVSPost2010Prop35
280
     0
102
RTVSPost2010PropOp35
 70
     1
102
RTVSPost2010Prop36
280
     0
102
RTVSPost2010PropOp36
 70
     1
102
RTVSPost2010Prop37
 90
       50
102
RTVSPost2010PropOp37
 70
     1
102
RTVSPost2010Prop38
140
0.0
102
RTVSPost2010PropOp38
 70
     1
102
RTVSPost2010Prop39
140
1.0
102
RTVSPost2010PropOp39
 70
     1
102
RTVSPost2010Prop40
 90
        0
102
RTVSPost2010PropOp40
 70
     1
102
RTVSPost2010Prop41ColorIndex
 90
       18
102
RTVSPost2010Prop41ColorRGB
 90
        0
102
RTVSPost2010PropOp41
 70
     1
102
RTVSPost2010Prop42
 90
       50
102
RTVSPost2010PropOp42
 70
     1
102
RTVSPost2010Prop43
 90
        3
102
RTVSPost2010PropOp43
 70
     1
102
RTVSPost2010Prop44ColorIndex
 90
        5
102
RTVSPost2010Prop44ColorRGB
 90
      255
102
RTVSPost2010PropOp44
 70
     1
102
RTVSPost2010Prop45
280
     0
102
RTVSPost2010PropOp45
 70
     1
102
RTVSPost2010Prop46
 90
       50
102
RTVSPost2010PropOp46
 70
     1
102
RTVSPost2010Prop47
 90
       50
102
RTVSPost2010PropOp47
 70
     1
102
RTVSPost2010Prop48
 90
       50
102
RTVSPost2010PropOp48
 70
     1
102
RTVSPost2010Prop49
280
     0
102
RTVSPost2010PropOp49
 70
     1
102
RTVSPost2010Prop50
 90
       50
102
RTVSPost2010PropOp50
 70
     1
102
RTVSPost2010Prop51ColorIndex
 90
      256
102
RTVSPost2010Prop51ColorRGB
 90
-16777216
102
RTVSPost2010PropOp51
 70
     0
102
RTVSPost2010Prop52
140
1.0
102
RTVSPost2010PropOp52
 70
     0
102
RTVSPost2010Prop53
 90
        2
102
RTVSPost2010PropOp53
 70
     1
102
RTVSPost2010Prop54
  1
strokes_ogs.tif
102
RTVSPost2010PropOp54
 70
     1
102
RTVSPost2010Prop55
280
     0
102
RTVSPost2010PropOp55
 70
     1
102
RTVSPost2010Prop56
140
1.0
102
RTVSPost2010PropOp56
 70
     1
102
RTVSPost2010Prop57
140
1.0
102
RTVSPost2010PropOp57
 70
     1
102
RTVSPropertyOp0
 70
     1
102
RTVSPropertyOp1
 70
     1
102
RTVSPropertyOp2
 70
     1
102
RTVSPropertyOp3
 70
     1
102
RTVSPropertyOp4
 70
     1
102
RTVSPropertyOp5
 70
     1
102
RTVSPropertyOp6
 70
     1
102
RTVSPropertyOp7
 70
     1
102
RTVSPropertyOp8
 70
     1
102
RTVSPropertyOp9
 70
     1
102
RTVSPropertyOp10
 70
     1
102
RTVSPropertyOp11
 70
     1
102
RTVSPropertyOp12
 70
     1
102
RTVSPropertyOp13
 70
     1
102
RTVSPropertyOp14
 70
     1
102
RTVSPropertyOp15
 70
     1
102
RTVSPropertyOp16
 70
     1
102
RTVSPropertyOp17
 70
     1
102
RTVSPropertyOp18
 70
     1
102
RTVSPropertyOp19
 70
     1
102
RTVSPropertyOp20
 70
     1
102
RTVSPropertyOp21
 70
     1
102
RTVSPropertyOp22
 70
     1
102
RTVSPropertyOp23
 70
     1
102
RTVSPropertyOp24
 70
     1
102
RTVSPropertyOp25
 70
     1
102
RTVSPropertyOp26
 70
     1
102
RTVSPropertyOp27
 70
     1
102
RTVSPropertyOp28
 70
     1
102
RTVSPropertyOp29
 70
     1
102
RTVSPropertyOp30
 70
     1
102
RTVSPropertyOp31
 70
     1
102
RTVSPropertyOp32
 70
     1
102
RTVSPropertyOp33
 70
     1
102
RTVSPropertyOp34
 70
     1
102
RTVSPropertyOp35
 70
     1
102
RTVSPropertyOp36
 70
     1
102
RTVSPropertyOp37
 70
     1
102
RTVSPropertyOp38
 70
     1
102
RTVSPropertyOp39
 70
     1
102
RTVSPropertyOp40
 70
     1
102
RTVSPropertyOp41
 70
     1
102
RTVSPropertyOp42
 70
     1
102
RTVSPropertyOp43
 70
     1
102
RTVSPropertyOp44
 70
     1
102
RTVSPropertyOp45
 70
     1
102
RTVSPropertyOp46
 70
     1
102
RTVSPropertyOp47
 70
     1
102
RTVSPropertyOp48
 70
     1
102
RTVSPropertyOp49
 70
     1
102
RTVSPropertyOp50
 70
     1
102
RTVSPropertyOp51
 70
     0
102
RTVSPropertyOp52
 70
     0
102
RTVSPropertyOp53
 70
     1
102
RTVSPropertyOp54
 70
     1
102
RTVSPropertyOp55
 70
     1
102
RTVSPropertyOp56
 70
     1
102
RTVSPropertyOp57
 70
     1
102
RTVSPropertyOp58
 70
     1
102
RTVSPropertyOp59
 70
     1
102
RTVSPropertyOp60
 70
     1
102
RTVSPropertyOp61
 70
     1
102
RTVSPropertyOp62
 70
     1
  0
XRECORD
  5
2310
102
{ACAD_REACTORS
330
230F
102
}
330
230F
100
AcDbXrecord
280
     1
102
RTVSPost2010Prop28
280
     0
102
RTVSPost2010PropOp28
 70
     1
102
RTVSPost2010Prop29
280
     1
102
RTVSPost2010PropOp29
 70
     1
102
RTVSPost2010Prop30
280
     1
102
RTVSPost2010PropOp30
 70
     1
102
RTVSPost2010Prop31
280
     0
102
RTVSPost2010PropOp31
 70
     1
102
RTVSPost2010Prop32
280
     0
102
RTVSPost2010PropOp32
 70
     1
102
RTVSPost2010Prop33
280
     0
102
RTVSPost2010PropOp33
 70
     1
102
RTVSPost2010Prop34
280
     0
102
RTVSPost2010PropOp34
 70
     1
102
RTVSPost2010Prop35
280
     0
102
RTVSPost2010PropOp35
 70
     1
102
RTVSPost2010Prop36
280
     0
102
RTVSPost2010PropOp36
 70
     1
102
RTVSPost2010Prop37
 90
       50
102
RTVSPost2010PropOp37
 70
     1
102
RTVSPost2010Prop38
140
0.0
102
RTVSPost2010PropOp38
 70
     1
102
RTVSPost2010Prop39
140
1.0
102
RTVSPost2010PropOp39
 70
     1
102
RTVSPost2010Prop40
 90
        0
102
RTVSPost2010PropOp40
 70
     1
102
RTVSPost2010Prop41ColorIndex
 90
       18
102
RTVSPost2010Prop41ColorRGB
 90
        0
102
RTVSPost2010PropOp41
 70
     1
102
RTVSPost2010Prop42
 90
       50
102
RTVSPost2010PropOp42
 70
     1
102
RTVSPost2010Prop43
 90
        3
102
RTVSPost2010PropOp43
 70
     1
102
RTVSPost2010Prop44ColorIndex
 90
        5
102
RTVSPost2010Prop44ColorRGB
 90
      255
102
RTVSPost2010PropOp44
 70
     1
102
RTVSPost2010Prop45
280
     0
102
RTVSPost2010PropOp45
 70
     1
102
RTVSPost2010Prop46
 90
       50
102
RTVSPost2010PropOp46
 70
     1
102
RTVSPost2010Prop47
 90
       50
102
RTVSPost2010PropOp47
 70
     1
102
RTVSPost2010Prop48
 90
       50
102
RTVSPost2010PropOp48
 70
     1
102
RTVSPost2010Prop49
280
     0
102
RTVSPost2010PropOp49
 70
     1
102
RTVSPost2010Prop50
 90
       50
102
RTVSPost2010PropOp50
 70
     1
102
RTVSPost2010Prop51ColorIndex
 90
      256
102
RTVSPost2010Prop51ColorRGB
 90
-16777216
102
RTVSPost2010PropOp51
 70
     0
102
RTVSPost2010Prop52
140
1.0
102
RTVSPost2010PropOp52
 70
     0
102
RTVSPost2010Prop53
 90
        2
102
RTVSPost2010PropOp53
 70
     1
102
RTVSPost2010Prop54
  1
strokes_ogs.tif
102
RTVSPost2010PropOp54
 70
     1
102
RTVSPost2010Prop55
280
     0
102
RTVSPost2010PropOp55
 70
     1
102
RTVSPost2010Prop56
140
1.0
102
RTVSPost2010PropOp56
 70
     1
102
RTVSPost2010Prop57
140
1.0
102
RTVSPost2010PropOp57
 70
     1
102
RTVSPropertyOp0
 70
     1
102
RTVSPropertyOp1
 70
     1
102
RTVSPropertyOp2
 70
     1
102
RTVSPropertyOp3
 70
     1
102
RTVSPropertyOp4
 70
     1
102
RTVSPropertyOp5
 70
     1
102
RTVSPropertyOp6
 70
     1
102
RTVSPropertyOp7
 70
     1
102
RTVSPropertyOp8
 70
     1
102
RTVSPropertyOp9
 70
     1
102
RTVSPropertyOp10
 70
     1
102
RTVSPropertyOp11
 70
     1
102
RTVSPropertyOp12
 70
     1
102
RTVSPropertyOp13
 70
     1
102
RTVSPropertyOp14
 70
     1
102
RTVSPropertyOp15
 70
     1
102
RTVSPropertyOp16
 70
     1
102
RTVSPropertyOp17
 70
     1
102
RTVSPropertyOp18
 70
     1
102
RTVSPropertyOp19
 70
     1
102
RTVSPropertyOp20
 70
     1
102
RTVSPropertyOp21
 70
     1
102
RTVSPropertyOp22
 70
     1
102
RTVSPropertyOp23
 70
     1
102
RTVSPropertyOp24
 70
     1
102
RTVSPropertyOp25
 70
     1
102
RTVSPropertyOp26
 70
     1
102
RTVSPropertyOp27
 70
     1
102
RTVSPropertyOp28
 70
     1
102
RTVSPropertyOp29
 70
     1
102
RTVSPropertyOp30
 70
     1
102
RTVSPropertyOp31
 70
     1
102
RTVSPropertyOp32
 70
     1
102
RTVSPropertyOp33
 70
     1
102
RTVSPropertyOp34
 70
     1
102
RTVSPropertyOp35
 70
     1
102
RTVSPropertyOp36
 70
     1
102
RTVSPropertyOp37
 70
     1
102
RTVSPropertyOp38
 70
     1
102
RTVSPropertyOp39
 70
     1
102
RTVSPropertyOp40
 70
     1
102
RTVSPropertyOp41
 70
     1
102
RTVSPropertyOp42
 70
     1
102
RTVSPropertyOp43
 70
     1
102
RTVSPropertyOp44
 70
     1
102
RTVSPropertyOp45
 70
     1
102
RTVSPropertyOp46
 70
     1
102
RTVSPropertyOp47
 70
     1
102
RTVSPropertyOp48
 70
     1
102
RTVSPropertyOp49
 70
     1
102
RTVSPropertyOp50
 70
     1
102
RTVSPropertyOp51
 70
     0
102
RTVSPropertyOp52
 70
     0
102
RTVSPropertyOp53
 70
     1
102
RTVSPropertyOp54
 70
     1
102
RTVSPropertyOp55
 70
     1
102
RTVSPropertyOp56
 70
     1
102
RTVSPropertyOp57
 70
     1
102
RTVSPropertyOp58
 70
     1
102
RTVSPropertyOp59
 70
     1
102
RTVSPropertyOp60
 70
     1
102
RTVSPropertyOp61
 70
     1
102
RTVSPropertyOp62
 70
     1
  0
XRECORD
  5
2318
102
{ACAD_REACTORS
330
2317
102
}
330
2317
100
AcDbXrecord
280
     1
102
RTVSPost2010Prop28
280
     0
102
RTVSPost2010PropOp28
 70
     1
102
RTVSPost2010Prop29
280
     1
102
RTVSPost2010PropOp29
 70
     1
102
RTVSPost2010Prop30
280
     1
102
RTVSPost2010PropOp30
 70
     1
102
RTVSPost2010Prop31
280
     0
102
RTVSPost2010PropOp31
 70
     1
102
RTVSPost2010Prop32
280
     0
102
RTVSPost2010PropOp32
 70
     1
102
RTVSPost2010Prop33
280
     0
102
RTVSPost2010PropOp33
 70
     1
102
RTVSPost2010Prop34
280
     0
102
RTVSPost2010PropOp34
 70
     1
102
RTVSPost2010Prop35
280
     0
102
RTVSPost2010PropOp35
 70
     1
102
RTVSPost2010Prop36
280
     0
102
RTVSPost2010PropOp36
 70
     1
102
RTVSPost2010Prop37
 90
       50
102
RTVSPost2010PropOp37
 70
     1
102
RTVSPost2010Prop38
140
0.0
102
RTVSPost2010PropOp38
 70
     1
102
RTVSPost2010Prop39
140
1.0
102
RTVSPost2010PropOp39
 70
     1
102
RTVSPost2010Prop40
 90
        0
102
RTVSPost2010PropOp40
 70
     1
102
RTVSPost2010Prop41ColorIndex
 90
       18
102
RTVSPost2010Prop41ColorRGB
 90
        0
102
RTVSPost2010PropOp41
 70
     1
102
RTVSPost2010Prop42
 90
       50
102
RTVSPost2010PropOp42
 70
     1
102
RTVSPost2010Prop43
 90
        3
102
RTVSPost2010PropOp43
 70
     1
102
RTVSPost2010Prop44ColorIndex
 90
        5
102
RTVSPost2010Prop44ColorRGB
 90
      255
102
RTVSPost2010PropOp44
 70
     1
102
RTVSPost2010Prop45
280
     0
102
RTVSPost2010PropOp45
 70
     1
102
RTVSPost2010Prop46
 90
       50
102
RTVSPost2010PropOp46
 70
     1
102
RTVSPost2010Prop47
 90
       50
102
RTVSPost2010PropOp47
 70
     1
102
RTVSPost2010Prop48
 90
       50
102
RTVSPost2010PropOp48
 70
     1
102
RTVSPost2010Prop49
280
     0
102
RTVSPost2010PropOp49
 70
     1
102
RTVSPost2010Prop50
 90
       50
102
RTVSPost2010PropOp50
 70
     1
102
RTVSPost2010Prop51ColorIndex
 90
      256
102
RTVSPost2010Prop51ColorRGB
 90
-16777216
102
RTVSPost2010PropOp51
 70
     0
102
RTVSPost2010Prop52
140
1.0
102
RTVSPost2010PropOp52
 70
     0
102
RTVSPost2010Prop53
 90
        2
102
RTVSPost2010PropOp53
 70
     1
102
RTVSPost2010Prop54
  1
strokes_ogs.tif
102
RTVSPost2010PropOp54
 70
     1
102
RTVSPost2010Prop55
280
     0
102
RTVSPost2010PropOp55
 70
     1
102
RTVSPost2010Prop56
140
1.0
102
RTVSPost2010PropOp56
 70
     1
102
RTVSPost2010Prop57
140
1.0
102
RTVSPost2010PropOp57
 70
     1
102
RTVSPropertyOp0
 70
     1
102
RTVSPropertyOp1
 70
     1
102
RTVSPropertyOp2
 70
     1
102
RTVSPropertyOp3
 70
     1
102
RTVSPropertyOp4
 70
     1
102
RTVSPropertyOp5
 70
     1
102
RTVSPropertyOp6
 70
     1
102
RTVSPropertyOp7
 70
     1
102
RTVSPropertyOp8
 70
     1
102
RTVSPropertyOp9
 70
     1
102
RTVSPropertyOp10
 70
     1
102
RTVSPropertyOp11
 70
     1
102
RTVSPropertyOp12
 70
     1
102
RTVSPropertyOp13
 70
     1
102
RTVSPropertyOp14
 70
     1
102
RTVSPropertyOp15
 70
     1
102
RTVSPropertyOp16
 70
     1
102
RTVSPropertyOp17
 70
     1
102
RTVSPropertyOp18
 70
     1
102
RTVSPropertyOp19
 70
     1
102
RTVSPropertyOp20
 70
     1
102
RTVSPropertyOp21
 70
     1
102
RTVSPropertyOp22
 70
     1
102
RTVSPropertyOp23
 70
     1
102
RTVSPropertyOp24
 70
     1
102
RTVSPropertyOp25
 70
     1
102
RTVSPropertyOp26
 70
     1
102
RTVSPropertyOp27
 70
     1
102
RTVSPropertyOp28
 70
     1
102
RTVSPropertyOp29
 70
     1
102
RTVSPropertyOp30
 70
     1
102
RTVSPropertyOp31
 70
     1
102
RTVSPropertyOp32
 70
     1
102
RTVSPropertyOp33
 70
     1
102
RTVSPropertyOp34
 70
     1
102
RTVSPropertyOp35
 70
     1
102
RTVSPropertyOp36
 70
     1
102
RTVSPropertyOp37
 70
     1
102
RTVSPropertyOp38
 70
     1
102
RTVSPropertyOp39
 70
     1
102
RTVSPropertyOp40
 70
     1
102
RTVSPropertyOp41
 70
     1
102
RTVSPropertyOp42
 70
     1
102
RTVSPropertyOp43
 70
     1
102
RTVSPropertyOp44
 70
     1
102
RTVSPropertyOp45
 70
     1
102
RTVSPropertyOp46
 70
     1
102
RTVSPropertyOp47
 70
     1
102
RTVSPropertyOp48
 70
     1
102
RTVSPropertyOp49
 70
     1
102
RTVSPropertyOp50
 70
     1
102
RTVSPropertyOp51
 70
     0
102
RTVSPropertyOp52
 70
     0
102
RTVSPropertyOp53
 70
     1
102
RTVSPropertyOp54
 70
     1
102
RTVSPropertyOp55
 70
     1
102
RTVSPropertyOp56
 70
     1
102
RTVSPropertyOp57
 70
     1
102
RTVSPropertyOp58
 70
     1
102
RTVSPropertyOp59
 70
     1
102
RTVSPropertyOp60
 70
     1
102
RTVSPropertyOp61
 70
     1
102
RTVSPropertyOp62
 70
     1
  0
XRECORD
  5
230A
102
{ACAD_REACTORS
330
2309
102
}
330
2309
100
AcDbXrecord
280
     1
102
RTVSPost2010Prop28
280
     0
102
RTVSPost2010PropOp28
 70
     1
102
RTVSPost2010Prop29
280
     1
102
RTVSPost2010PropOp29
 70
     1
102
RTVSPost2010Prop30
280
     1
102
RTVSPost2010PropOp30
 70
     1
102
RTVSPost2010Prop31
280
     0
102
RTVSPost2010PropOp31
 70
     1
102
RTVSPost2010Prop32
280
     0
102
RTVSPost2010PropOp32
 70
     1
102
RTVSPost2010Prop33
280
     0
102
RTVSPost2010PropOp33
 70
     1
102
RTVSPost2010Prop34
280
     0
102
RTVSPost2010PropOp34
 70
     1
102
RTVSPost2010Prop35
280
     0
102
RTVSPost2010PropOp35
 70
     1
102
RTVSPost2010Prop36
280
     0
102
RTVSPost2010PropOp36
 70
     1
102
RTVSPost2010Prop37
 90
       50
102
RTVSPost2010PropOp37
 70
     1
102
RTVSPost2010Prop38
140
0.0
102
RTVSPost2010PropOp38
 70
     1
102
RTVSPost2010Prop39
140
1.0
102
RTVSPost2010PropOp39
 70
     1
102
RTVSPost2010Prop40
 90
        0
102
RTVSPost2010PropOp40
 70
     1
102
RTVSPost2010Prop41ColorIndex
 90
       18
102
RTVSPost2010Prop41ColorRGB
 90
        0
102
RTVSPost2010PropOp41
 70
     1
102
RTVSPost2010Prop42
 90
       50
102
RTVSPost2010PropOp42
 70
     1
102
RTVSPost2010Prop43
 90
        3
102
RTVSPost2010PropOp43
 70
     1
102
RTVSPost2010Prop44ColorIndex
 90
        5
102
RTVSPost2010Prop44ColorRGB
 90
      255
102
RTVSPost2010PropOp44
 70
     1
102
RTVSPost2010Prop45
280
     0
102
RTVSPost2010PropOp45
 70
     1
102
RTVSPost2010Prop46
 90
       50
102
RTVSPost2010PropOp46
 70
     1
102
RTVSPost2010Prop47
 90
       50
102
RTVSPost2010PropOp47
 70
     1
102
RTVSPost2010Prop48
 90
       50
102
RTVSPost2010PropOp48
 70
     1
102
RTVSPost2010Prop49
280
     0
102
RTVSPost2010PropOp49
 70
     1
102
RTVSPost2010Prop50
 90
       50
102
RTVSPost2010PropOp50
 70
     1
102
RTVSPost2010Prop51ColorIndex
 90
      256
102
RTVSPost2010Prop51ColorRGB
 90
-16777216
102
RTVSPost2010PropOp51
 70
     0
102
RTVSPost2010Prop52
140
1.0
102
RTVSPost2010PropOp52
 70
     0
102
RTVSPost2010Prop53
 90
        2
102
RTVSPost2010PropOp53
 70
     1
102
RTVSPost2010Prop54
  1
strokes_ogs.tif
102
RTVSPost2010PropOp54
 70
     1
102
RTVSPost2010Prop55
280
     0
102
RTVSPost2010PropOp55
 70
     1
102
RTVSPost2010Prop56
140
1.0
102
RTVSPost2010PropOp56
 70
     1
102
RTVSPost2010Prop57
140
1.0
102
RTVSPost2010PropOp57
 70
     1
102
RTVSPropertyOp0
 70
     1
102
RTVSPropertyOp1
 70
     1
102
RTVSPropertyOp2
 70
     1
102
RTVSPropertyOp3
 70
     1
102
RTVSPropertyOp4
 70
     1
102
RTVSPropertyOp5
 70
     1
102
RTVSPropertyOp6
 70
     1
102
RTVSPropertyOp7
 70
     1
102
RTVSPropertyOp8
 70
     1
102
RTVSPropertyOp9
 70
     1
102
RTVSPropertyOp10
 70
     1
102
RTVSPropertyOp11
 70
     1
102
RTVSPropertyOp12
 70
     1
102
RTVSPropertyOp13
 70
     1
102
RTVSPropertyOp14
 70
     1
102
RTVSPropertyOp15
 70
     1
102
RTVSPropertyOp16
 70
     1
102
RTVSPropertyOp17
 70
     1
102
RTVSPropertyOp18
 70
     1
102
RTVSPropertyOp19
 70
     1
102
RTVSPropertyOp20
 70
     1
102
RTVSPropertyOp21
 70
     1
102
RTVSPropertyOp22
 70
     1
102
RTVSPropertyOp23
 70
     1
102
RTVSPropertyOp24
 70
     1
102
RTVSPropertyOp25
 70
     1
102
RTVSPropertyOp26
 70
     1
102
RTVSPropertyOp27
 70
     1
102
RTVSPropertyOp28
 70
     1
102
RTVSPropertyOp29
 70
     1
102
RTVSPropertyOp30
 70
     1
102
RTVSPropertyOp31
 70
     1
102
RTVSPropertyOp32
 70
     1
102
RTVSPropertyOp33
 70
     1
102
RTVSPropertyOp34
 70
     1
102
RTVSPropertyOp35
 70
     1
102
RTVSPropertyOp36
 70
     1
102
RTVSPropertyOp37
 70
     1
102
RTVSPropertyOp38
 70
     1
102
RTVSPropertyOp39
 70
     1
102
RTVSPropertyOp40
 70
     1
102
RTVSPropertyOp41
 70
     1
102
RTVSPropertyOp42
 70
     1
102
RTVSPropertyOp43
 70
     1
102
RTVSPropertyOp44
 70
     1
102
RTVSPropertyOp45
 70
     1
102
RTVSPropertyOp46
 70
     1
102
RTVSPropertyOp47
 70
     1
102
RTVSPropertyOp48
 70
     1
102
RTVSPropertyOp49
 70
     1
102
RTVSPropertyOp50
 70
     1
102
RTVSPropertyOp51
 70
     0
102
RTVSPropertyOp52
 70
     0
102
RTVSPropertyOp53
 70
     1
102
RTVSPropertyOp54
 70
     1
102
RTVSPropertyOp55
 70
     1
102
RTVSPropertyOp56
 70
     1
102
RTVSPropertyOp57
 70
     1
102
RTVSPropertyOp58
 70
     1
102
RTVSPropertyOp59
 70
     1
102
RTVSPropertyOp60
 70
     1
102
RTVSPropertyOp61
 70
     1
102
RTVSPropertyOp62
 70
     1
  0
XRECORD
  5
230E
102
{ACAD_REACTORS
330
230D
102
}
330
230D
100
AcDbXrecord
280
     1
102
RTVSPost2010Prop28
280
     0
102
RTVSPost2010PropOp28
 70
     1
102
RTVSPost2010Prop29
280
     1
102
RTVSPost2010PropOp29
 70
     1
102
RTVSPost2010Prop30
280
     1
102
RTVSPost2010PropOp30
 70
     1
102
RTVSPost2010Prop31
280
     0
102
RTVSPost2010PropOp31
 70
     1
102
RTVSPost2010Prop32
280
     0
102
RTVSPost2010PropOp32
 70
     1
102
RTVSPost2010Prop33
280
     0
102
RTVSPost2010PropOp33
 70
     1
102
RTVSPost2010Prop34
280
     0
102
RTVSPost2010PropOp34
 70
     1
102
RTVSPost2010Prop35
280
     0
102
RTVSPost2010PropOp35
 70
     1
102
RTVSPost2010Prop36
280
     0
102
RTVSPost2010PropOp36
 70
     1
102
RTVSPost2010Prop37
 90
       50
102
RTVSPost2010PropOp37
 70
     1
102
RTVSPost2010Prop38
140
0.0
102
RTVSPost2010PropOp38
 70
     1
102
RTVSPost2010Prop39
140
1.0
102
RTVSPost2010PropOp39
 70
     1
102
RTVSPost2010Prop40
 90
        0
102
RTVSPost2010PropOp40
 70
     1
102
RTVSPost2010Prop41ColorIndex
 90
       18
102
RTVSPost2010Prop41ColorRGB
 90
        0
102
RTVSPost2010PropOp41
 70
     1
102
RTVSPost2010Prop42
 90
       50
102
RTVSPost2010PropOp42
 70
     1
102
RTVSPost2010Prop43
 90
        3
102
RTVSPost2010PropOp43
 70
     1
102
RTVSPost2010Prop44ColorIndex
 90
        5
102
RTVSPost2010Prop44ColorRGB
 90
      255
102
RTVSPost2010PropOp44
 70
     1
102
RTVSPost2010Prop45
280
     0
102
RTVSPost2010PropOp45
 70
     1
102
RTVSPost2010Prop46
 90
       50
102
RTVSPost2010PropOp46
 70
     1
102
RTVSPost2010Prop47
 90
       50
102
RTVSPost2010PropOp47
 70
     1
102
RTVSPost2010Prop48
 90
       50
102
RTVSPost2010PropOp48
 70
     1
102
RTVSPost2010Prop49
280
     0
102
RTVSPost2010PropOp49
 70
     1
102
RTVSPost2010Prop50
 90
       50
102
RTVSPost2010PropOp50
 70
     1
102
RTVSPost2010Prop51ColorIndex
 90
      256
102
RTVSPost2010Prop51ColorRGB
 90
-16777216
102
RTVSPost2010PropOp51
 70
     0
102
RTVSPost2010Prop52
140
1.0
102
RTVSPost2010PropOp52
 70
     0
102
RTVSPost2010Prop53
 90
        2
102
RTVSPost2010PropOp53
 70
     1
102
RTVSPost2010Prop54
  1
strokes_ogs.tif
102
RTVSPost2010PropOp54
 70
     1
102
RTVSPost2010Prop55
280
     0
102
RTVSPost2010PropOp55
 70
     1
102
RTVSPost2010Prop56
140
1.0
102
RTVSPost2010PropOp56
 70
     1
102
RTVSPost2010Prop57
140
1.0
102
RTVSPost2010PropOp57
 70
     1
102
RTVSPropertyOp0
 70
     1
102
RTVSPropertyOp1
 70
     1
102
RTVSPropertyOp2
 70
     1
102
RTVSPropertyOp3
 70
     1
102
RTVSPropertyOp4
 70
     1
102
RTVSPropertyOp5
 70
     1
102
RTVSPropertyOp6
 70
     1
102
RTVSPropertyOp7
 70
     1
102
RTVSPropertyOp8
 70
     1
102
RTVSPropertyOp9
 70
     1
102
RTVSPropertyOp10
 70
     1
102
RTVSPropertyOp11
 70
     1
102
RTVSPropertyOp12
 70
     1
102
RTVSPropertyOp13
 70
     1
102
RTVSPropertyOp14
 70
     1
102
RTVSPropertyOp15
 70
     1
102
RTVSPropertyOp16
 70
     1
102
RTVSPropertyOp17
 70
     1
102
RTVSPropertyOp18
 70
     1
102
RTVSPropertyOp19
 70
     1
102
RTVSPropertyOp20
 70
     1
102
RTVSPropertyOp21
 70
     1
102
RTVSPropertyOp22
 70
     1
102
RTVSPropertyOp23
 70
     1
102
RTVSPropertyOp24
 70
     1
102
RTVSPropertyOp25
 70
     1
102
RTVSPropertyOp26
 70
     1
102
RTVSPropertyOp27
 70
     1
102
RTVSPropertyOp28
 70
     1
102
RTVSPropertyOp29
 70
     1
102
RTVSPropertyOp30
 70
     1
102
RTVSPropertyOp31
 70
     1
102
RTVSPropertyOp32
 70
     1
102
RTVSPropertyOp33
 70
     1
102
RTVSPropertyOp34
 70
     1
102
RTVSPropertyOp35
 70
     1
102
RTVSPropertyOp36
 70
     1
102
RTVSPropertyOp37
 70
     1
102
RTVSPropertyOp38
 70
     1
102
RTVSPropertyOp39
 70
     1
102
RTVSPropertyOp40
 70
     1
102
RTVSPropertyOp41
 70
     1
102
RTVSPropertyOp42
 70
     1
102
RTVSPropertyOp43
 70
     1
102
RTVSPropertyOp44
 70
     1
102
RTVSPropertyOp45
 70
     1
102
RTVSPropertyOp46
 70
     1
102
RTVSPropertyOp47
 70
     1
102
RTVSPropertyOp48
 70
     1
102
RTVSPropertyOp49
 70
     1
102
RTVSPropertyOp50
 70
     1
102
RTVSPropertyOp51
 70
     0
102
RTVSPropertyOp52
 70
     0
102
RTVSPropertyOp53
 70
     1
102
RTVSPropertyOp54
 70
     1
102
RTVSPropertyOp55
 70
     1
102
RTVSPropertyOp56
 70
     1
102
RTVSPropertyOp57
 70
     1
102
RTVSPropertyOp58
 70
     1
102
RTVSPropertyOp59
 70
     1
102
RTVSPropertyOp60
 70
     1
102
RTVSPropertyOp61
 70
     1
102
RTVSPropertyOp62
 70
     1
  0
XRECORD
  5
2320
102
{ACAD_REACTORS
330
231F
102
}
330
231F
100
AcDbXrecord
280
     1
102
RTVSPost2010Prop28
280
     0
102
RTVSPost2010PropOp28
 70
     1
102
RTVSPost2010Prop29
280
     1
102
RTVSPost2010PropOp29
 70
     1
102
RTVSPost2010Prop30
280
     1
102
RTVSPost2010PropOp30
 70
     1
102
RTVSPost2010Prop31
280
     0
102
RTVSPost2010PropOp31
 70
     1
102
RTVSPost2010Prop32
280
     0
102
RTVSPost2010PropOp32
 70
     1
102
RTVSPost2010Prop33
280
     0
102
RTVSPost2010PropOp33
 70
     1
102
RTVSPost2010Prop34
280
     0
102
RTVSPost2010PropOp34
 70
     1
102
RTVSPost2010Prop35
280
     0
102
RTVSPost2010PropOp35
 70
     1
102
RTVSPost2010Prop36
280
     0
102
RTVSPost2010PropOp36
 70
     1
102
RTVSPost2010Prop37
 90
       50
102
RTVSPost2010PropOp37
 70
     1
102
RTVSPost2010Prop38
140
0.0
102
RTVSPost2010PropOp38
 70
     1
102
RTVSPost2010Prop39
140
1.0
102
RTVSPost2010PropOp39
 70
     1
102
RTVSPost2010Prop40
 90
        0
102
RTVSPost2010PropOp40
 70
     1
102
RTVSPost2010Prop41ColorIndex
 90
       18
102
RTVSPost2010Prop41ColorRGB
 90
        0
102
RTVSPost2010PropOp41
 70
     1
102
RTVSPost2010Prop42
 90
       50
102
RTVSPost2010PropOp42
 70
     1
102
RTVSPost2010Prop43
 90
        3
102
RTVSPost2010PropOp43
 70
     1
102
RTVSPost2010Prop44ColorIndex
 90
        5
102
RTVSPost2010Prop44ColorRGB
 90
      255
102
RTVSPost2010PropOp44
 70
     1
102
RTVSPost2010Prop45
280
     0
102
RTVSPost2010PropOp45
 70
     1
102
RTVSPost2010Prop46
 90
       50
102
RTVSPost2010PropOp46
 70
     1
102
RTVSPost2010Prop47
 90
       50
102
RTVSPost2010PropOp47
 70
     1
102
RTVSPost2010Prop48
 90
       50
102
RTVSPost2010PropOp48
 70
     1
102
RTVSPost2010Prop49
280
     0
102
RTVSPost2010PropOp49
 70
     1
102
RTVSPost2010Prop50
 90
       50
102
RTVSPost2010PropOp50
 70
     1
102
RTVSPost2010Prop51ColorIndex
 90
      256
102
RTVSPost2010Prop51ColorRGB
 90
-16777216
102
RTVSPost2010PropOp51
 70
     0
102
RTVSPost2010Prop52
140
1.0
102
RTVSPost2010PropOp52
 70
     0
102
RTVSPost2010Prop53
 90
        2
102
RTVSPost2010PropOp53
 70
     1
102
RTVSPost2010Prop54
  1
strokes_ogs.tif
102
RTVSPost2010PropOp54
 70
     1
102
RTVSPost2010Prop55
280
     0
102
RTVSPost2010PropOp55
 70
     1
102
RTVSPost2010Prop56
140
1.0
102
RTVSPost2010PropOp56
 70
     1
102
RTVSPost2010Prop57
140
1.0
102
RTVSPost2010PropOp57
 70
     1
102
RTVSPropertyOp0
 70
     0
102
RTVSPropertyOp1
 70
     0
102
RTVSPropertyOp2
 70
     0
102
RTVSPropertyOp3
 70
     0
102
RTVSPropertyOp4
 70
     0
102
RTVSPropertyOp5
 70
     0
102
RTVSPropertyOp6
 70
     0
102
RTVSPropertyOp7
 70
     0
102
RTVSPropertyOp8
 70
     0
102
RTVSPropertyOp9
 70
     0
102
RTVSPropertyOp10
 70
     0
102
RTVSPropertyOp11
 70
     0
102
RTVSPropertyOp12
 70
     0
102
RTVSPropertyOp13
 70
     0
102
RTVSPropertyOp14
 70
     2
102
RTVSPropertyOp15
 70
     0
102
RTVSPropertyOp16
 70
     0
102
RTVSPropertyOp17
 70
     0
102
RTVSPropertyOp18
 70
     0
102
RTVSPropertyOp19
 70
     0
102
RTVSPropertyOp20
 70
     0
102
RTVSPropertyOp21
 70
     0
102
RTVSPropertyOp22
 70
     0
102
RTVSPropertyOp23
 70
     0
102
RTVSPropertyOp24
 70
     0
102
RTVSPropertyOp25
 70
     0
102
RTVSPropertyOp26
 70
     0
102
RTVSPropertyOp27
 70
     0
102
RTVSPropertyOp28
 70
     1
102
RTVSPropertyOp29
 70
     1
102
RTVSPropertyOp30
 70
     1
102
RTVSPropertyOp31
 70
     1
102
RTVSPropertyOp32
 70
     1
102
RTVSPropertyOp33
 70
     1
102
RTVSPropertyOp34
 70
     1
102
RTVSPropertyOp35
 70
     1
102
RTVSPropertyOp36
 70
     1
102
RTVSPropertyOp37
 70
     1
102
RTVSPropertyOp38
 70
     1
102
RTVSPropertyOp39
 70
     1
102
RTVSPropertyOp40
 70
     1
102
RTVSPropertyOp41
 70
     1
102
RTVSPropertyOp42
 70
     1
102
RTVSPropertyOp43
 70
     1
102
RTVSPropertyOp44
 70
     1
102
RTVSPropertyOp45
 70
     1
102
RTVSPropertyOp46
 70
     1
102
RTVSPropertyOp47
 70
     1
102
RTVSPropertyOp48
 70
     1
102
RTVSPropertyOp49
 70
     1
102
RTVSPropertyOp50
 70
     1
102
RTVSPropertyOp51
 70
     0
102
RTVSPropertyOp52
 70
     0
102
RTVSPropertyOp53
 70
     1
102
RTVSPropertyOp54
 70
     1
102
RTVSPropertyOp55
 70
     1
102
RTVSPropertyOp56
 70
     1
102
RTVSPropertyOp57
 70
     1
102
RTVSPropertyOp58
 70
     1
102
RTVSPropertyOp59
 70
     1
102
RTVSPropertyOp60
 70
     1
102
RTVSPropertyOp61
 70
     1
102
RTVSPropertyOp62
 70
     1
  0
XRECORD
  5
2316
102
{ACAD_REACTORS
330
2315
102
}
330
2315
100
AcDbXrecord
280
     1
102
RTVSPost2010Prop28
280
     0
102
RTVSPost2010PropOp28
 70
     1
102
RTVSPost2010Prop29
280
     1
102
RTVSPost2010PropOp29
 70
     1
102
RTVSPost2010Prop30
280
     1
102
RTVSPost2010PropOp30
 70
     1
102
RTVSPost2010Prop31
280
     0
102
RTVSPost2010PropOp31
 70
     1
102
RTVSPost2010Prop32
280
     0
102
RTVSPost2010PropOp32
 70
     1
102
RTVSPost2010Prop33
280
     0
102
RTVSPost2010PropOp33
 70
     1
102
RTVSPost2010Prop34
280
     0
102
RTVSPost2010PropOp34
 70
     1
102
RTVSPost2010Prop35
280
     0
102
RTVSPost2010PropOp35
 70
     1
102
RTVSPost2010Prop36
280
     0
102
RTVSPost2010PropOp36
 70
     1
102
RTVSPost2010Prop37
 90
       50
102
RTVSPost2010PropOp37
 70
     1
102
RTVSPost2010Prop38
140
0.0
102
RTVSPost2010PropOp38
 70
     1
102
RTVSPost2010Prop39
140
1.0
102
RTVSPost2010PropOp39
 70
     1
102
RTVSPost2010Prop40
 90
        0
102
RTVSPost2010PropOp40
 70
     1
102
RTVSPost2010Prop41ColorIndex
 90
       18
102
RTVSPost2010Prop41ColorRGB
 90
        0
102
RTVSPost2010PropOp41
 70
     1
102
RTVSPost2010Prop42
 90
       50
102
RTVSPost2010PropOp42
 70
     1
102
RTVSPost2010Prop43
 90
        3
102
RTVSPost2010PropOp43
 70
     1
102
RTVSPost2010Prop44ColorIndex
 90
        5
102
RTVSPost2010Prop44ColorRGB
 90
      255
102
RTVSPost2010PropOp44
 70
     1
102
RTVSPost2010Prop45
280
     0
102
RTVSPost2010PropOp45
 70
     1
102
RTVSPost2010Prop46
 90
       50
102
RTVSPost2010PropOp46
 70
     1
102
RTVSPost2010Prop47
 90
       50
102
RTVSPost2010PropOp47
 70
     1
102
RTVSPost2010Prop48
 90
       50
102
RTVSPost2010PropOp48
 70
     1
102
RTVSPost2010Prop49
280
     0
102
RTVSPost2010PropOp49
 70
     1
102
RTVSPost2010Prop50
 90
       50
102
RTVSPost2010PropOp50
 70
     1
102
RTVSPost2010Prop51ColorIndex
 90
      256
102
RTVSPost2010Prop51ColorRGB
 90
-16777216
102
RTVSPost2010PropOp51
 70
     0
102
RTVSPost2010Prop52
140
1.0
102
RTVSPost2010PropOp52
 70
     0
102
RTVSPost2010Prop53
 90
        2
102
RTVSPost2010PropOp53
 70
     1
102
RTVSPost2010Prop54
  1
strokes_ogs.tif
102
RTVSPost2010PropOp54
 70
     1
102
RTVSPost2010Prop55
280
     0
102
RTVSPost2010PropOp55
 70
     1
102
RTVSPost2010Prop56
140
1.0
102
RTVSPost2010PropOp56
 70
     1
102
RTVSPost2010Prop57
140
1.0
102
RTVSPost2010PropOp57
 70
     1
102
RTVSPropertyOp0
 70
     1
102
RTVSPropertyOp1
 70
     1
102
RTVSPropertyOp2
 70
     1
102
RTVSPropertyOp3
 70
     1
102
RTVSPropertyOp4
 70
     1
102
RTVSPropertyOp5
 70
     1
102
RTVSPropertyOp6
 70
     1
102
RTVSPropertyOp7
 70
     1
102
RTVSPropertyOp8
 70
     1
102
RTVSPropertyOp9
 70
     1
102
RTVSPropertyOp10
 70
     1
102
RTVSPropertyOp11
 70
     1
102
RTVSPropertyOp12
 70
     1
102
RTVSPropertyOp13
 70
     1
102
RTVSPropertyOp14
 70
     1
102
RTVSPropertyOp15
 70
     1
102
RTVSPropertyOp16
 70
     1
102
RTVSPropertyOp17
 70
     1
102
RTVSPropertyOp18
 70
     1
102
RTVSPropertyOp19
 70
     1
102
RTVSPropertyOp20
 70
     1
102
RTVSPropertyOp21
 70
     1
102
RTVSPropertyOp22
 70
     1
102
RTVSPropertyOp23
 70
     1
102
RTVSPropertyOp24
 70
     1
102
RTVSPropertyOp25
 70
     1
102
RTVSPropertyOp26
 70
     1
102
RTVSPropertyOp27
 70
     1
102
RTVSPropertyOp28
 70
     1
102
RTVSPropertyOp29
 70
     1
102
RTVSPropertyOp30
 70
     1
102
RTVSPropertyOp31
 70
     1
102
RTVSPropertyOp32
 70
     1
102
RTVSPropertyOp33
 70
     1
102
RTVSPropertyOp34
 70
     1
102
RTVSPropertyOp35
 70
     1
102
RTVSPropertyOp36
 70
     1
102
RTVSPropertyOp37
 70
     1
102
RTVSPropertyOp38
 70
     1
102
RTVSPropertyOp39
 70
     1
102
RTVSPropertyOp40
 70
     1
102
RTVSPropertyOp41
 70
     1
102
RTVSPropertyOp42
 70
     1
102
RTVSPropertyOp43
 70
     1
102
RTVSPropertyOp44
 70
     1
102
RTVSPropertyOp45
 70
     1
102
RTVSPropertyOp46
 70
     1
102
RTVSPropertyOp47
 70
     1
102
RTVSPropertyOp48
 70
     1
102
RTVSPropertyOp49
 70
     1
102
RTVSPropertyOp50
 70
     1
102
RTVSPropertyOp51
 70
     0
102
RTVSPropertyOp52
 70
     0
102
RTVSPropertyOp53
 70
     1
102
RTVSPropertyOp54
 70
     1
102
RTVSPropertyOp55
 70
     1
102
RTVSPropertyOp56
 70
     1
102
RTVSPropertyOp57
 70
     1
102
RTVSPropertyOp58
 70
     1
102
RTVSPropertyOp59
 70
     1
102
RTVSPropertyOp60
 70
     1
102
RTVSPropertyOp61
 70
     1
102
RTVSPropertyOp62
 70
     1
  0
XRECORD
  5
22FA
102
{ACAD_REACTORS
330
22F9
102
}
330
22F9
100
AcDbXrecord
280
     1
102
RTVSPost2010Prop28
280
     0
102
RTVSPost2010PropOp28
 70
     1
102
RTVSPost2010Prop29
280
     1
102
RTVSPost2010PropOp29
 70
     1
102
RTVSPost2010Prop30
280
     1
102
RTVSPost2010PropOp30
 70
     1
102
RTVSPost2010Prop31
280
     0
102
RTVSPost2010PropOp31
 70
     1
102
RTVSPost2010Prop32
280
     0
102
RTVSPost2010PropOp32
 70
     1
102
RTVSPost2010Prop33
280
     0
102
RTVSPost2010PropOp33
 70
     1
102
RTVSPost2010Prop34
280
     0
102
RTVSPost2010PropOp34
 70
     1
102
RTVSPost2010Prop35
280
     0
102
RTVSPost2010PropOp35
 70
     1
102
RTVSPost2010Prop36
280
     0
102
RTVSPost2010PropOp36
 70
     1
102
RTVSPost2010Prop37
 90
       50
102
RTVSPost2010PropOp37
 70
     1
102
RTVSPost2010Prop38
140
0.0
102
RTVSPost2010PropOp38
 70
     1
102
RTVSPost2010Prop39
140
1.0
102
RTVSPost2010PropOp39
 70
     1
102
RTVSPost2010Prop40
 90
        0
102
RTVSPost2010PropOp40
 70
     1
102
RTVSPost2010Prop41ColorIndex
 90
       18
102
RTVSPost2010Prop41ColorRGB
 90
        0
102
RTVSPost2010PropOp41
 70
     1
102
RTVSPost2010Prop42
 90
       50
102
RTVSPost2010PropOp42
 70
     1
102
RTVSPost2010Prop43
 90
        3
102
RTVSPost2010PropOp43
 70
     1
102
RTVSPost2010Prop44ColorIndex
 90
        5
102
RTVSPost2010Prop44ColorRGB
 90
      255
102
RTVSPost2010PropOp44
 70
     1
102
RTVSPost2010Prop45
280
     0
102
RTVSPost2010PropOp45
 70
     1
102
RTVSPost2010Prop46
 90
       50
102
RTVSPost2010PropOp46
 70
     1
102
RTVSPost2010Prop47
 90
       50
102
RTVSPost2010PropOp47
 70
     1
102
RTVSPost2010Prop48
 90
       50
102
RTVSPost2010PropOp48
 70
     1
102
RTVSPost2010Prop49
280
     0
102
RTVSPost2010PropOp49
 70
     1
102
RTVSPost2010Prop50
 90
       50
102
RTVSPost2010PropOp50
 70
     1
102
RTVSPost2010Prop51ColorIndex
 90
      256
102
RTVSPost2010Prop51ColorRGB
 90
-16777216
102
RTVSPost2010PropOp51
 70
     0
102
RTVSPost2010Prop52
140
1.0
102
RTVSPost2010PropOp52
 70
     0
102
RTVSPost2010Prop53
 90
        2
102
RTVSPost2010PropOp53
 70
     1
102
RTVSPost2010Prop54
  1
strokes_ogs.tif
102
RTVSPost2010PropOp54
 70
     1
102
RTVSPost2010Prop55
280
     0
102
RTVSPost2010PropOp55
 70
     1
102
RTVSPost2010Prop56
140
1.0
102
RTVSPost2010PropOp56
 70
     1
102
RTVSPost2010Prop57
140
1.0
102
RTVSPost2010PropOp57
 70
     1
102
RTVSPropertyOp0
 70
     1
102
RTVSPropertyOp1
 70
     1
102
RTVSPropertyOp2
 70
     1
102
RTVSPropertyOp3
 70
     1
102
RTVSPropertyOp4
 70
     1
102
RTVSPropertyOp5
 70
     1
102
RTVSPropertyOp6
 70
     1
102
RTVSPropertyOp7
 70
     1
102
RTVSPropertyOp8
 70
     1
102
RTVSPropertyOp9
 70
     1
102
RTVSPropertyOp10
 70
     1
102
RTVSPropertyOp11
 70
     1
102
RTVSPropertyOp12
 70
     1
102
RTVSPropertyOp13
 70
     1
102
RTVSPropertyOp14
 70
     1
102
RTVSPropertyOp15
 70
     1
102
RTVSPropertyOp16
 70
     1
102
RTVSPropertyOp17
 70
     1
102
RTVSPropertyOp18
 70
     1
102
RTVSPropertyOp19
 70
     1
102
RTVSPropertyOp20
 70
     1
102
RTVSPropertyOp21
 70
     1
102
RTVSPropertyOp22
 70
     1
102
RTVSPropertyOp23
 70
     1
102
RTVSPropertyOp24
 70
     1
102
RTVSPropertyOp25
 70
     1
102
RTVSPropertyOp26
 70
     1
102
RTVSPropertyOp27
 70
     1
102
RTVSPropertyOp28
 70
     1
102
RTVSPropertyOp29
 70
     1
102
RTVSPropertyOp30
 70
     1
102
RTVSPropertyOp31
 70
     1
102
RTVSPropertyOp32
 70
     1
102
RTVSPropertyOp33
 70
     1
102
RTVSPropertyOp34
 70
     1
102
RTVSPropertyOp35
 70
     1
102
RTVSPropertyOp36
 70
     1
102
RTVSPropertyOp37
 70
     1
102
RTVSPropertyOp38
 70
     1
102
RTVSPropertyOp39
 70
     1
102
RTVSPropertyOp40
 70
     1
102
RTVSPropertyOp41
 70
     1
102
RTVSPropertyOp42
 70
     1
102
RTVSPropertyOp43
 70
     1
102
RTVSPropertyOp44
 70
     1
102
RTVSPropertyOp45
 70
     1
102
RTVSPropertyOp46
 70
     1
102
RTVSPropertyOp47
 70
     1
102
RTVSPropertyOp48
 70
     1
102
RTVSPropertyOp49
 70
     1
102
RTVSPropertyOp50
 70
     1
102
RTVSPropertyOp51
 70
     0
102
RTVSPropertyOp52
 70
     0
102
RTVSPropertyOp53
 70
     1
102
RTVSPropertyOp54
 70
     1
102
RTVSPropertyOp55
 70
     1
102
RTVSPropertyOp56
 70
     1
102
RTVSPropertyOp57
 70
     1
102
RTVSPropertyOp58
 70
     1
102
RTVSPropertyOp59
 70
     1
102
RTVSPropertyOp60
 70
     1
102
RTVSPropertyOp61
 70
     1
102
RTVSPropertyOp62
 70
     1
  0
XRECORD
  5
22FC
102
{ACAD_REACTORS
330
22FB
102
}
330
22FB
100
AcDbXrecord
280
     1
102
RTVSPost2010Prop28
280
     0
102
RTVSPost2010PropOp28
 70
     1
102
RTVSPost2010Prop29
280
     1
102
RTVSPost2010PropOp29
 70
     1
102
RTVSPost2010Prop30
280
     1
102
RTVSPost2010PropOp30
 70
     1
102
RTVSPost2010Prop31
280
     0
102
RTVSPost2010PropOp31
 70
     1
102
RTVSPost2010Prop32
280
     0
102
RTVSPost2010PropOp32
 70
     1
102
RTVSPost2010Prop33
280
     0
102
RTVSPost2010PropOp33
 70
     1
102
RTVSPost2010Prop34
280
     0
102
RTVSPost2010PropOp34
 70
     1
102
RTVSPost2010Prop35
280
     0
102
RTVSPost2010PropOp35
 70
     1
102
RTVSPost2010Prop36
280
     0
102
RTVSPost2010PropOp36
 70
     1
102
RTVSPost2010Prop37
 90
       50
102
RTVSPost2010PropOp37
 70
     1
102
RTVSPost2010Prop38
140
0.0
102
RTVSPost2010PropOp38
 70
     1
102
RTVSPost2010Prop39
140
1.0
102
RTVSPost2010PropOp39
 70
     1
102
RTVSPost2010Prop40
 90
        0
102
RTVSPost2010PropOp40
 70
     1
102
RTVSPost2010Prop41ColorIndex
 90
       18
102
RTVSPost2010Prop41ColorRGB
 90
        0
102
RTVSPost2010PropOp41
 70
     1
102
RTVSPost2010Prop42
 90
       50
102
RTVSPost2010PropOp42
 70
     1
102
RTVSPost2010Prop43
 90
        3
102
RTVSPost2010PropOp43
 70
     1
102
RTVSPost2010Prop44ColorIndex
 90
        5
102
RTVSPost2010Prop44ColorRGB
 90
      255
102
RTVSPost2010PropOp44
 70
     1
102
RTVSPost2010Prop45
280
     0
102
RTVSPost2010PropOp45
 70
     1
102
RTVSPost2010Prop46
 90
       50
102
RTVSPost2010PropOp46
 70
     1
102
RTVSPost2010Prop47
 90
       50
102
RTVSPost2010PropOp47
 70
     1
102
RTVSPost2010Prop48
 90
       50
102
RTVSPost2010PropOp48
 70
     1
102
RTVSPost2010Prop49
280
     0
102
RTVSPost2010PropOp49
 70
     1
102
RTVSPost2010Prop50
 90
       50
102
RTVSPost2010PropOp50
 70
     1
102
RTVSPost2010Prop51ColorIndex
 90
      256
102
RTVSPost2010Prop51ColorRGB
 90
-16777216
102
RTVSPost2010PropOp51
 70
     0
102
RTVSPost2010Prop52
140
1.0
102
RTVSPost2010PropOp52
 70
     0
102
RTVSPost2010Prop53
 90
        2
102
RTVSPost2010PropOp53
 70
     1
102
RTVSPost2010Prop54
  1
strokes_ogs.tif
102
RTVSPost2010PropOp54
 70
     1
102
RTVSPost2010Prop55
280
     0
102
RTVSPost2010PropOp55
 70
     1
102
RTVSPost2010Prop56
140
1.0
102
RTVSPost2010PropOp56
 70
     1
102
RTVSPost2010Prop57
140
1.0
102
RTVSPost2010PropOp57
 70
     1
102
RTVSPropertyOp0
 70
     1
102
RTVSPropertyOp1
 70
     1
102
RTVSPropertyOp2
 70
     1
102
RTVSPropertyOp3
 70
     1
102
RTVSPropertyOp4
 70
     1
102
RTVSPropertyOp5
 70
     1
102
RTVSPropertyOp6
 70
     1
102
RTVSPropertyOp7
 70
     1
102
RTVSPropertyOp8
 70
     1
102
RTVSPropertyOp9
 70
     1
102
RTVSPropertyOp10
 70
     1
102
RTVSPropertyOp11
 70
     1
102
RTVSPropertyOp12
 70
     1
102
RTVSPropertyOp13
 70
     1
102
RTVSPropertyOp14
 70
     1
102
RTVSPropertyOp15
 70
     1
102
RTVSPropertyOp16
 70
     1
102
RTVSPropertyOp17
 70
     1
102
RTVSPropertyOp18
 70
     1
102
RTVSPropertyOp19
 70
     1
102
RTVSPropertyOp20
 70
     1
102
RTVSPropertyOp21
 70
     1
102
RTVSPropertyOp22
 70
     1
102
RTVSPropertyOp23
 70
     1
102
RTVSPropertyOp24
 70
     1
102
RTVSPropertyOp25
 70
     1
102
RTVSPropertyOp26
 70
     1
102
RTVSPropertyOp27
 70
     1
102
RTVSPropertyOp28
 70
     1
102
RTVSPropertyOp29
 70
     1
102
RTVSPropertyOp30
 70
     1
102
RTVSPropertyOp31
 70
     1
102
RTVSPropertyOp32
 70
     1
102
RTVSPropertyOp33
 70
     1
102
RTVSPropertyOp34
 70
     1
102
RTVSPropertyOp35
 70
     1
102
RTVSPropertyOp36
 70
     1
102
RTVSPropertyOp37
 70
     1
102
RTVSPropertyOp38
 70
     1
102
RTVSPropertyOp39
 70
     1
102
RTVSPropertyOp40
 70
     1
102
RTVSPropertyOp41
 70
     1
102
RTVSPropertyOp42
 70
     1
102
RTVSPropertyOp43
 70
     1
102
RTVSPropertyOp44
 70
     1
102
RTVSPropertyOp45
 70
     1
102
RTVSPropertyOp46
 70
     1
102
RTVSPropertyOp47
 70
     1
102
RTVSPropertyOp48
 70
     1
102
RTVSPropertyOp49
 70
     1
102
RTVSPropertyOp50
 70
     1
102
RTVSPropertyOp51
 70
     0
102
RTVSPropertyOp52
 70
     0
102
RTVSPropertyOp53
 70
     1
102
RTVSPropertyOp54
 70
     1
102
RTVSPropertyOp55
 70
     1
102
RTVSPropertyOp56
 70
     1
102
RTVSPropertyOp57
 70
     1
102
RTVSPropertyOp58
 70
     1
102
RTVSPropertyOp59
 70
     1
102
RTVSPropertyOp60
 70
     1
102
RTVSPropertyOp61
 70
     1
102
RTVSPropertyOp62
 70
     1
  0
XRECORD
  5
22FE
102
{ACAD_REACTORS
330
22FD
102
}
330
22FD
100
AcDbXrecord
280
     1
102
RTVSPost2010Prop28
280
     0
102
RTVSPost2010PropOp28
 70
     1
102
RTVSPost2010Prop29
280
     1
102
RTVSPost2010PropOp29
 70
     1
102
RTVSPost2010Prop30
280
     1
102
RTVSPost2010PropOp30
 70
     1
102
RTVSPost2010Prop31
280
     0
102
RTVSPost2010PropOp31
 70
     1
102
RTVSPost2010Prop32
280
     0
102
RTVSPost2010PropOp32
 70
     1
102
RTVSPost2010Prop33
280
     0
102
RTVSPost2010PropOp33
 70
     1
102
RTVSPost2010Prop34
280
     0
102
RTVSPost2010PropOp34
 70
     1
102
RTVSPost2010Prop35
280
     0
102
RTVSPost2010PropOp35
 70
     1
102
RTVSPost2010Prop36
280
     0
102
RTVSPost2010PropOp36
 70
     1
102
RTVSPost2010Prop37
 90
       50
102
RTVSPost2010PropOp37
 70
     1
102
RTVSPost2010Prop38
140
0.0
102
RTVSPost2010PropOp38
 70
     1
102
RTVSPost2010Prop39
140
1.0
102
RTVSPost2010PropOp39
 70
     1
102
RTVSPost2010Prop40
 90
        0
102
RTVSPost2010PropOp40
 70
     1
102
RTVSPost2010Prop41ColorIndex
 90
       18
102
RTVSPost2010Prop41ColorRGB
 90
        0
102
RTVSPost2010PropOp41
 70
     1
102
RTVSPost2010Prop42
 90
       50
102
RTVSPost2010PropOp42
 70
     1
102
RTVSPost2010Prop43
 90
        3
102
RTVSPost2010PropOp43
 70
     1
102
RTVSPost2010Prop44ColorIndex
 90
        5
102
RTVSPost2010Prop44ColorRGB
 90
      255
102
RTVSPost2010PropOp44
 70
     1
102
RTVSPost2010Prop45
280
     0
102
RTVSPost2010PropOp45
 70
     1
102
RTVSPost2010Prop46
 90
       50
102
RTVSPost2010PropOp46
 70
     1
102
RTVSPost2010Prop47
 90
       50
102
RTVSPost2010PropOp47
 70
     1
102
RTVSPost2010Prop48
 90
       50
102
RTVSPost2010PropOp48
 70
     1
102
RTVSPost2010Prop49
280
     0
102
RTVSPost2010PropOp49
 70
     1
102
RTVSPost2010Prop50
 90
       50
102
RTVSPost2010PropOp50
 70
     1
102
RTVSPost2010Prop51ColorIndex
 90
      256
102
RTVSPost2010Prop51ColorRGB
 90
-16777216
102
RTVSPost2010PropOp51
 70
     0
102
RTVSPost2010Prop52
140
1.0
102
RTVSPost2010PropOp52
 70
     0
102
RTVSPost2010Prop53
 90
        2
102
RTVSPost2010PropOp53
 70
     1
102
RTVSPost2010Prop54
  1
strokes_ogs.tif
102
RTVSPost2010PropOp54
 70
     1
102
RTVSPost2010Prop55
280
     0
102
RTVSPost2010PropOp55
 70
     1
102
RTVSPost2010Prop56
140
1.0
102
RTVSPost2010PropOp56
 70
     1
102
RTVSPost2010Prop57
140
1.0
102
RTVSPost2010PropOp57
 70
     1
102
RTVSPropertyOp0
 70
     1
102
RTVSPropertyOp1
 70
     1
102
RTVSPropertyOp2
 70
     1
102
RTVSPropertyOp3
 70
     1
102
RTVSPropertyOp4
 70
     1
102
RTVSPropertyOp5
 70
     1
102
RTVSPropertyOp6
 70
     1
102
RTVSPropertyOp7
 70
     1
102
RTVSPropertyOp8
 70
     1
102
RTVSPropertyOp9
 70
     1
102
RTVSPropertyOp10
 70
     1
102
RTVSPropertyOp11
 70
     1
102
RTVSPropertyOp12
 70
     1
102
RTVSPropertyOp13
 70
     1
102
RTVSPropertyOp14
 70
     1
102
RTVSPropertyOp15
 70
     1
102
RTVSPropertyOp16
 70
     1
102
RTVSPropertyOp17
 70
     1
102
RTVSPropertyOp18
 70
     1
102
RTVSPropertyOp19
 70
     1
102
RTVSPropertyOp20
 70
     1
102
RTVSPropertyOp21
 70
     1
102
RTVSPropertyOp22
 70
     1
102
RTVSPropertyOp23
 70
     1
102
RTVSPropertyOp24
 70
     1
102
RTVSPropertyOp25
 70
     1
102
RTVSPropertyOp26
 70
     1
102
RTVSPropertyOp27
 70
     1
102
RTVSPropertyOp28
 70
     1
102
RTVSPropertyOp29
 70
     1
102
RTVSPropertyOp30
 70
     1
102
RTVSPropertyOp31
 70
     1
102
RTVSPropertyOp32
 70
     1
102
RTVSPropertyOp33
 70
     1
102
RTVSPropertyOp34
 70
     1
102
RTVSPropertyOp35
 70
     1
102
RTVSPropertyOp36
 70
     1
102
RTVSPropertyOp37
 70
     1
102
RTVSPropertyOp38
 70
     1
102
RTVSPropertyOp39
 70
     1
102
RTVSPropertyOp40
 70
     1
102
RTVSPropertyOp41
 70
     1
102
RTVSPropertyOp42
 70
     1
102
RTVSPropertyOp43
 70
     1
102
RTVSPropertyOp44
 70
     1
102
RTVSPropertyOp45
 70
     1
102
RTVSPropertyOp46
 70
     1
102
RTVSPropertyOp47
 70
     1
102
RTVSPropertyOp48
 70
     1
102
RTVSPropertyOp49
 70
     1
102
RTVSPropertyOp50
 70
     1
102
RTVSPropertyOp51
 70
     0
102
RTVSPropertyOp52
 70
     0
102
RTVSPropertyOp53
 70
     1
102
RTVSPropertyOp54
 70
     1
102
RTVSPropertyOp55
 70
     1
102
RTVSPropertyOp56
 70
     1
102
RTVSPropertyOp57
 70
     1
102
RTVSPropertyOp58
 70
     1
102
RTVSPropertyOp59
 70
     1
102
RTVSPropertyOp60
 70
     1
102
RTVSPropertyOp61
 70
     1
102
RTVSPropertyOp62
 70
     1
  0
XRECORD
  5
2300
102
{ACAD_REACTORS
330
22FF
102
}
330
22FF
100
AcDbXrecord
280
     1
102
RTVSPost2010Prop28
280
     0
102
RTVSPost2010PropOp28
 70
     1
102
RTVSPost2010Prop29
280
     1
102
RTVSPost2010PropOp29
 70
     1
102
RTVSPost2010Prop30
280
     1
102
RTVSPost2010PropOp30
 70
     1
102
RTVSPost2010Prop31
280
     0
102
RTVSPost2010PropOp31
 70
     1
102
RTVSPost2010Prop32
280
     0
102
RTVSPost2010PropOp32
 70
     1
102
RTVSPost2010Prop33
280
     0
102
RTVSPost2010PropOp33
 70
     1
102
RTVSPost2010Prop34
280
     0
102
RTVSPost2010PropOp34
 70
     1
102
RTVSPost2010Prop35
280
     0
102
RTVSPost2010PropOp35
 70
     1
102
RTVSPost2010Prop36
280
     0
102
RTVSPost2010PropOp36
 70
     1
102
RTVSPost2010Prop37
 90
       50
102
RTVSPost2010PropOp37
 70
     1
102
RTVSPost2010Prop38
140
0.0
102
RTVSPost2010PropOp38
 70
     1
102
RTVSPost2010Prop39
140
1.0
102
RTVSPost2010PropOp39
 70
     1
102
RTVSPost2010Prop40
 90
        0
102
RTVSPost2010PropOp40
 70
     1
102
RTVSPost2010Prop41ColorIndex
 90
       18
102
RTVSPost2010Prop41ColorRGB
 90
        0
102
RTVSPost2010PropOp41
 70
     1
102
RTVSPost2010Prop42
 90
       50
102
RTVSPost2010PropOp42
 70
     1
102
RTVSPost2010Prop43
 90
        3
102
RTVSPost2010PropOp43
 70
     1
102
RTVSPost2010Prop44ColorIndex
 90
        5
102
RTVSPost2010Prop44ColorRGB
 90
      255
102
RTVSPost2010PropOp44
 70
     1
102
RTVSPost2010Prop45
280
     0
102
RTVSPost2010PropOp45
 70
     1
102
RTVSPost2010Prop46
 90
       50
102
RTVSPost2010PropOp46
 70
     1
102
RTVSPost2010Prop47
 90
       50
102
RTVSPost2010PropOp47
 70
     1
102
RTVSPost2010Prop48
 90
       50
102
RTVSPost2010PropOp48
 70
     1
102
RTVSPost2010Prop49
280
     0
102
RTVSPost2010PropOp49
 70
     1
102
RTVSPost2010Prop50
 90
       50
102
RTVSPost2010PropOp50
 70
     1
102
RTVSPost2010Prop51ColorIndex
 90
      256
102
RTVSPost2010Prop51ColorRGB
 90
-16777216
102
RTVSPost2010PropOp51
 70
     0
102
RTVSPost2010Prop52
140
1.0
102
RTVSPost2010PropOp52
 70
     0
102
RTVSPost2010Prop53
 90
        2
102
RTVSPost2010PropOp53
 70
     1
102
RTVSPost2010Prop54
  1
strokes_ogs.tif
102
RTVSPost2010PropOp54
 70
     1
102
RTVSPost2010Prop55
280
     0
102
RTVSPost2010PropOp55
 70
     1
102
RTVSPost2010Prop56
140
1.0
102
RTVSPost2010PropOp56
 70
     1
102
RTVSPost2010Prop57
140
1.0
102
RTVSPost2010PropOp57
 70
     1
102
RTVSPropertyOp0
 70
     1
102
RTVSPropertyOp1
 70
     1
102
RTVSPropertyOp2
 70
     1
102
RTVSPropertyOp3
 70
     1
102
RTVSPropertyOp4
 70
     1
102
RTVSPropertyOp5
 70
     1
102
RTVSPropertyOp6
 70
     1
102
RTVSPropertyOp7
 70
     1
102
RTVSPropertyOp8
 70
     1
102
RTVSPropertyOp9
 70
     1
102
RTVSPropertyOp10
 70
     1
102
RTVSPropertyOp11
 70
     1
102
RTVSPropertyOp12
 70
     1
102
RTVSPropertyOp13
 70
     1
102
RTVSPropertyOp14
 70
     1
102
RTVSPropertyOp15
 70
     1
102
RTVSPropertyOp16
 70
     1
102
RTVSPropertyOp17
 70
     1
102
RTVSPropertyOp18
 70
     1
102
RTVSPropertyOp19
 70
     1
102
RTVSPropertyOp20
 70
     1
102
RTVSPropertyOp21
 70
     1
102
RTVSPropertyOp22
 70
     1
102
RTVSPropertyOp23
 70
     1
102
RTVSPropertyOp24
 70
     1
102
RTVSPropertyOp25
 70
     1
102
RTVSPropertyOp26
 70
     1
102
RTVSPropertyOp27
 70
     1
102
RTVSPropertyOp28
 70
     1
102
RTVSPropertyOp29
 70
     1
102
RTVSPropertyOp30
 70
     1
102
RTVSPropertyOp31
 70
     1
102
RTVSPropertyOp32
 70
     1
102
RTVSPropertyOp33
 70
     1
102
RTVSPropertyOp34
 70
     1
102
RTVSPropertyOp35
 70
     1
102
RTVSPropertyOp36
 70
     1
102
RTVSPropertyOp37
 70
     1
102
RTVSPropertyOp38
 70
     1
102
RTVSPropertyOp39
 70
     1
102
RTVSPropertyOp40
 70
     1
102
RTVSPropertyOp41
 70
     1
102
RTVSPropertyOp42
 70
     1
102
RTVSPropertyOp43
 70
     1
102
RTVSPropertyOp44
 70
     1
102
RTVSPropertyOp45
 70
     1
102
RTVSPropertyOp46
 70
     1
102
RTVSPropertyOp47
 70
     1
102
RTVSPropertyOp48
 70
     1
102
RTVSPropertyOp49
 70
     1
102
RTVSPropertyOp50
 70
     1
102
RTVSPropertyOp51
 70
     0
102
RTVSPropertyOp52
 70
     0
102
RTVSPropertyOp53
 70
     1
102
RTVSPropertyOp54
 70
     1
102
RTVSPropertyOp55
 70
     1
102
RTVSPropertyOp56
 70
     1
102
RTVSPropertyOp57
 70
     1
102
RTVSPropertyOp58
 70
     1
102
RTVSPropertyOp59
 70
     1
102
RTVSPropertyOp60
 70
     1
102
RTVSPropertyOp61
 70
     1
102
RTVSPropertyOp62
 70
     1
  0
XRECORD
  5
2308
102
{ACAD_REACTORS
330
2307
102
}
330
2307
100
AcDbXrecord
280
     1
102
RTVSPost2010Prop28
280
     0
102
RTVSPost2010PropOp28
 70
     1
102
RTVSPost2010Prop29
280
     1
102
RTVSPost2010PropOp29
 70
     1
102
RTVSPost2010Prop30
280
     1
102
RTVSPost2010PropOp30
 70
     1
102
RTVSPost2010Prop31
280
     0
102
RTVSPost2010PropOp31
 70
     1
102
RTVSPost2010Prop32
280
     0
102
RTVSPost2010PropOp32
 70
     1
102
RTVSPost2010Prop33
280
     0
102
RTVSPost2010PropOp33
 70
     1
102
RTVSPost2010Prop34
280
     0
102
RTVSPost2010PropOp34
 70
     1
102
RTVSPost2010Prop35
280
     0
102
RTVSPost2010PropOp35
 70
     1
102
RTVSPost2010Prop36
280
     0
102
RTVSPost2010PropOp36
 70
     1
102
RTVSPost2010Prop37
 90
       50
102
RTVSPost2010PropOp37
 70
     1
102
RTVSPost2010Prop38
140
0.0
102
RTVSPost2010PropOp38
 70
     1
102
RTVSPost2010Prop39
140
1.0
102
RTVSPost2010PropOp39
 70
     1
102
RTVSPost2010Prop40
 90
        0
102
RTVSPost2010PropOp40
 70
     1
102
RTVSPost2010Prop41ColorIndex
 90
       18
102
RTVSPost2010Prop41ColorRGB
 90
        0
102
RTVSPost2010PropOp41
 70
     1
102
RTVSPost2010Prop42
 90
       50
102
RTVSPost2010PropOp42
 70
     1
102
RTVSPost2010Prop43
 90
        3
102
RTVSPost2010PropOp43
 70
     1
102
RTVSPost2010Prop44ColorIndex
 90
        5
102
RTVSPost2010Prop44ColorRGB
 90
      255
102
RTVSPost2010PropOp44
 70
     1
102
RTVSPost2010Prop45
280
     0
102
RTVSPost2010PropOp45
 70
     1
102
RTVSPost2010Prop46
 90
       50
102
RTVSPost2010PropOp46
 70
     1
102
RTVSPost2010Prop47
 90
       50
102
RTVSPost2010PropOp47
 70
     1
102
RTVSPost2010Prop48
 90
       50
102
RTVSPost2010PropOp48
 70
     1
102
RTVSPost2010Prop49
280
     0
102
RTVSPost2010PropOp49
 70
     1
102
RTVSPost2010Prop50
 90
       50
102
RTVSPost2010PropOp50
 70
     1
102
RTVSPost2010Prop51ColorIndex
 90
      256
102
RTVSPost2010Prop51ColorRGB
 90
-16777216
102
RTVSPost2010PropOp51
 70
     0
102
RTVSPost2010Prop52
140
1.0
102
RTVSPost2010PropOp52
 70
     0
102
RTVSPost2010Prop53
 90
        2
102
RTVSPost2010PropOp53
 70
     1
102
RTVSPost2010Prop54
  1
strokes_ogs.tif
102
RTVSPost2010PropOp54
 70
     1
102
RTVSPost2010Prop55
280
     0
102
RTVSPost2010PropOp55
 70
     1
102
RTVSPost2010Prop56
140
1.0
102
RTVSPost2010PropOp56
 70
     1
102
RTVSPost2010Prop57
140
1.0
102
RTVSPost2010PropOp57
 70
     1
102
RTVSPropertyOp0
 70
     1
102
RTVSPropertyOp1
 70
     1
102
RTVSPropertyOp2
 70
     1
102
RTVSPropertyOp3
 70
     1
102
RTVSPropertyOp4
 70
     1
102
RTVSPropertyOp5
 70
     1
102
RTVSPropertyOp6
 70
     1
102
RTVSPropertyOp7
 70
     1
102
RTVSPropertyOp8
 70
     1
102
RTVSPropertyOp9
 70
     1
102
RTVSPropertyOp10
 70
     1
102
RTVSPropertyOp11
 70
     1
102
RTVSPropertyOp12
 70
     1
102
RTVSPropertyOp13
 70
     1
102
RTVSPropertyOp14
 70
     1
102
RTVSPropertyOp15
 70
     1
102
RTVSPropertyOp16
 70
     1
102
RTVSPropertyOp17
 70
     1
102
RTVSPropertyOp18
 70
     1
102
RTVSPropertyOp19
 70
     1
102
RTVSPropertyOp20
 70
     1
102
RTVSPropertyOp21
 70
     1
102
RTVSPropertyOp22
 70
     1
102
RTVSPropertyOp23
 70
     1
102
RTVSPropertyOp24
 70
     1
102
RTVSPropertyOp25
 70
     1
102
RTVSPropertyOp26
 70
     1
102
RTVSPropertyOp27
 70
     1
102
RTVSPropertyOp28
 70
     1
102
RTVSPropertyOp29
 70
     1
102
RTVSPropertyOp30
 70
     1
102
RTVSPropertyOp31
 70
     1
102
RTVSPropertyOp32
 70
     1
102
RTVSPropertyOp33
 70
     1
102
RTVSPropertyOp34
 70
     1
102
RTVSPropertyOp35
 70
     1
102
RTVSPropertyOp36
 70
     1
102
RTVSPropertyOp37
 70
     1
102
RTVSPropertyOp38
 70
     1
102
RTVSPropertyOp39
 70
     1
102
RTVSPropertyOp40
 70
     1
102
RTVSPropertyOp41
 70
     1
102
RTVSPropertyOp42
 70
     1
102
RTVSPropertyOp43
 70
     1
102
RTVSPropertyOp44
 70
     1
102
RTVSPropertyOp45
 70
     1
102
RTVSPropertyOp46
 70
     1
102
RTVSPropertyOp47
 70
     1
102
RTVSPropertyOp48
 70
     1
102
RTVSPropertyOp49
 70
     1
102
RTVSPropertyOp50
 70
     1
102
RTVSPropertyOp51
 70
     0
102
RTVSPropertyOp52
 70
     0
102
RTVSPropertyOp53
 70
     1
102
RTVSPropertyOp54
 70
     1
102
RTVSPropertyOp55
 70
     1
102
RTVSPropertyOp56
 70
     1
102
RTVSPropertyOp57
 70
     1
102
RTVSPropertyOp58
 70
     1
102
RTVSPropertyOp59
 70
     1
102
RTVSPropertyOp60
 70
     1
102
RTVSPropertyOp61
 70
     1
102
RTVSPropertyOp62
 70
     1
  0
XRECORD
  5
231C
102
{ACAD_REACTORS
330
231B
102
}
330
231B
100
AcDbXrecord
280
     1
102
RTVSPost2010Prop28
280
     0
102
RTVSPost2010PropOp28
 70
     1
102
RTVSPost2010Prop29
280
     1
102
RTVSPost2010PropOp29
 70
     1
102
RTVSPost2010Prop30
280
     1
102
RTVSPost2010PropOp30
 70
     1
102
RTVSPost2010Prop31
280
     0
102
RTVSPost2010PropOp31
 70
     1
102
RTVSPost2010Prop32
280
     0
102
RTVSPost2010PropOp32
 70
     1
102
RTVSPost2010Prop33
280
     0
102
RTVSPost2010PropOp33
 70
     1
102
RTVSPost2010Prop34
280
     0
102
RTVSPost2010PropOp34
 70
     1
102
RTVSPost2010Prop35
280
     0
102
RTVSPost2010PropOp35
 70
     1
102
RTVSPost2010Prop36
280
     0
102
RTVSPost2010PropOp36
 70
     1
102
RTVSPost2010Prop37
 90
       50
102
RTVSPost2010PropOp37
 70
     1
102
RTVSPost2010Prop38
140
0.0
102
RTVSPost2010PropOp38
 70
     1
102
RTVSPost2010Prop39
140
1.0
102
RTVSPost2010PropOp39
 70
     1
102
RTVSPost2010Prop40
 90
        0
102
RTVSPost2010PropOp40
 70
     1
102
RTVSPost2010Prop41ColorIndex
 90
       18
102
RTVSPost2010Prop41ColorRGB
 90
        0
102
RTVSPost2010PropOp41
 70
     1
102
RTVSPost2010Prop42
 90
       50
102
RTVSPost2010PropOp42
 70
     1
102
RTVSPost2010Prop43
 90
        3
102
RTVSPost2010PropOp43
 70
     1
102
RTVSPost2010Prop44ColorIndex
 90
        5
102
RTVSPost2010Prop44ColorRGB
 90
      255
102
RTVSPost2010PropOp44
 70
     1
102
RTVSPost2010Prop45
280
     0
102
RTVSPost2010PropOp45
 70
     1
102
RTVSPost2010Prop46
 90
       50
102
RTVSPost2010PropOp46
 70
     1
102
RTVSPost2010Prop47
 90
       50
102
RTVSPost2010PropOp47
 70
     1
102
RTVSPost2010Prop48
 90
       50
102
RTVSPost2010PropOp48
 70
     1
102
RTVSPost2010Prop49
280
     0
102
RTVSPost2010PropOp49
 70
     1
102
RTVSPost2010Prop50
 90
       50
102
RTVSPost2010PropOp50
 70
     1
102
RTVSPost2010Prop51ColorIndex
 90
      256
102
RTVSPost2010Prop51ColorRGB
 90
-16777216
102
RTVSPost2010PropOp51
 70
     0
102
RTVSPost2010Prop52
140
1.0
102
RTVSPost2010PropOp52
 70
     0
102
RTVSPost2010Prop53
 90
        2
102
RTVSPost2010PropOp53
 70
     1
102
RTVSPost2010Prop54
  1
strokes_ogs.tif
102
RTVSPost2010PropOp54
 70
     1
102
RTVSPost2010Prop55
280
     0
102
RTVSPost2010PropOp55
 70
     1
102
RTVSPost2010Prop56
140
1.0
102
RTVSPost2010PropOp56
 70
     1
102
RTVSPost2010Prop57
140
1.0
102
RTVSPost2010PropOp57
 70
     1
102
RTVSPropertyOp0
 70
     0
102
RTVSPropertyOp1
 70
     0
102
RTVSPropertyOp2
 70
     0
102
RTVSPropertyOp3
 70
     0
102
RTVSPropertyOp4
 70
     0
102
RTVSPropertyOp5
 70
     0
102
RTVSPropertyOp6
 70
     0
102
RTVSPropertyOp7
 70
     0
102
RTVSPropertyOp8
 70
     0
102
RTVSPropertyOp9
 70
     0
102
RTVSPropertyOp10
 70
     0
102
RTVSPropertyOp11
 70
     0
102
RTVSPropertyOp12
 70
     0
102
RTVSPropertyOp13
 70
     0
102
RTVSPropertyOp14
 70
     2
102
RTVSPropertyOp15
 70
     0
102
RTVSPropertyOp16
 70
     0
102
RTVSPropertyOp17
 70
     0
102
RTVSPropertyOp18
 70
     0
102
RTVSPropertyOp19
 70
     0
102
RTVSPropertyOp20
 70
     0
102
RTVSPropertyOp21
 70
     0
102
RTVSPropertyOp22
 70
     0
102
RTVSPropertyOp23
 70
     0
102
RTVSPropertyOp24
 70
     0
102
RTVSPropertyOp25
 70
     0
102
RTVSPropertyOp26
 70
     0
102
RTVSPropertyOp27
 70
     0
102
RTVSPropertyOp28
 70
     1
102
RTVSPropertyOp29
 70
     1
102
RTVSPropertyOp30
 70
     1
102
RTVSPropertyOp31
 70
     1
102
RTVSPropertyOp32
 70
     1
102
RTVSPropertyOp33
 70
     1
102
RTVSPropertyOp34
 70
     1
102
RTVSPropertyOp35
 70
     1
102
RTVSPropertyOp36
 70
     1
102
RTVSPropertyOp37
 70
     1
102
RTVSPropertyOp38
 70
     1
102
RTVSPropertyOp39
 70
     1
102
RTVSPropertyOp40
 70
     1
102
RTVSPropertyOp41
 70
     1
102
RTVSPropertyOp42
 70
     1
102
RTVSPropertyOp43
 70
     1
102
RTVSPropertyOp44
 70
     1
102
RTVSPropertyOp45
 70
     1
102
RTVSPropertyOp46
 70
     1
102
RTVSPropertyOp47
 70
     1
102
RTVSPropertyOp48
 70
     1
102
RTVSPropertyOp49
 70
     1
102
RTVSPropertyOp50
 70
     1
102
RTVSPropertyOp51
 70
     0
102
RTVSPropertyOp52
 70
     0
102
RTVSPropertyOp53
 70
     1
102
RTVSPropertyOp54
 70
     1
102
RTVSPropertyOp55
 70
     1
102
RTVSPropertyOp56
 70
     1
102
RTVSPropertyOp57
 70
     1
102
RTVSPropertyOp58
 70
     1
102
RTVSPropertyOp59
 70
     1
102
RTVSPropertyOp60
 70
     1
102
RTVSPropertyOp61
 70
     1
102
RTVSPropertyOp62
 70
     1
  0
XRECORD
  5
2314
102
{ACAD_REACTORS
330
2313
102
}
330
2313
100
AcDbXrecord
280
     1
102
RTVSPost2010Prop28
280
     0
102
RTVSPost2010PropOp28
 70
     1
102
RTVSPost2010Prop29
280
     1
102
RTVSPost2010PropOp29
 70
     1
102
RTVSPost2010Prop30
280
     1
102
RTVSPost2010PropOp30
 70
     1
102
RTVSPost2010Prop31
280
     0
102
RTVSPost2010PropOp31
 70
     1
102
RTVSPost2010Prop32
280
     0
102
RTVSPost2010PropOp32
 70
     1
102
RTVSPost2010Prop33
280
     0
102
RTVSPost2010PropOp33
 70
     1
102
RTVSPost2010Prop34
280
     0
102
RTVSPost2010PropOp34
 70
     1
102
RTVSPost2010Prop35
280
     0
102
RTVSPost2010PropOp35
 70
     1
102
RTVSPost2010Prop36
280
     0
102
RTVSPost2010PropOp36
 70
     1
102
RTVSPost2010Prop37
 90
       50
102
RTVSPost2010PropOp37
 70
     1
102
RTVSPost2010Prop38
140
0.0
102
RTVSPost2010PropOp38
 70
     1
102
RTVSPost2010Prop39
140
1.0
102
RTVSPost2010PropOp39
 70
     1
102
RTVSPost2010Prop40
 90
        0
102
RTVSPost2010PropOp40
 70
     1
102
RTVSPost2010Prop41ColorIndex
 90
       18
102
RTVSPost2010Prop41ColorRGB
 90
        0
102
RTVSPost2010PropOp41
 70
     1
102
RTVSPost2010Prop42
 90
       50
102
RTVSPost2010PropOp42
 70
     1
102
RTVSPost2010Prop43
 90
        3
102
RTVSPost2010PropOp43
 70
     1
102
RTVSPost2010Prop44ColorIndex
 90
        5
102
RTVSPost2010Prop44ColorRGB
 90
      255
102
RTVSPost2010PropOp44
 70
     1
102
RTVSPost2010Prop45
280
     0
102
RTVSPost2010PropOp45
 70
     1
102
RTVSPost2010Prop46
 90
       50
102
RTVSPost2010PropOp46
 70
     1
102
RTVSPost2010Prop47
 90
       50
102
RTVSPost2010PropOp47
 70
     1
102
RTVSPost2010Prop48
 90
       50
102
RTVSPost2010PropOp48
 70
     1
102
RTVSPost2010Prop49
280
     0
102
RTVSPost2010PropOp49
 70
     1
102
RTVSPost2010Prop50
 90
       50
102
RTVSPost2010PropOp50
 70
     1
102
RTVSPost2010Prop51ColorIndex
 90
      256
102
RTVSPost2010Prop51ColorRGB
 90
-16777216
102
RTVSPost2010PropOp51
 70
     0
102
RTVSPost2010Prop52
140
1.0
102
RTVSPost2010PropOp52
 70
     0
102
RTVSPost2010Prop53
 90
        2
102
RTVSPost2010PropOp53
 70
     1
102
RTVSPost2010Prop54
  1
strokes_ogs.tif
102
RTVSPost2010PropOp54
 70
     1
102
RTVSPost2010Prop55
280
     0
102
RTVSPost2010PropOp55
 70
     1
102
RTVSPost2010Prop56
140
1.0
102
RTVSPost2010PropOp56
 70
     1
102
RTVSPost2010Prop57
140
1.0
102
RTVSPost2010PropOp57
 70
     1
102
RTVSPropertyOp0
 70
     1
102
RTVSPropertyOp1
 70
     1
102
RTVSPropertyOp2
 70
     1
102
RTVSPropertyOp3
 70
     1
102
RTVSPropertyOp4
 70
     1
102
RTVSPropertyOp5
 70
     1
102
RTVSPropertyOp6
 70
     1
102
RTVSPropertyOp7
 70
     1
102
RTVSPropertyOp8
 70
     1
102
RTVSPropertyOp9
 70
     1
102
RTVSPropertyOp10
 70
     1
102
RTVSPropertyOp11
 70
     1
102
RTVSPropertyOp12
 70
     1
102
RTVSPropertyOp13
 70
     1
102
RTVSPropertyOp14
 70
     1
102
RTVSPropertyOp15
 70
     1
102
RTVSPropertyOp16
 70
     1
102
RTVSPropertyOp17
 70
     1
102
RTVSPropertyOp18
 70
     1
102
RTVSPropertyOp19
 70
     1
102
RTVSPropertyOp20
 70
     1
102
RTVSPropertyOp21
 70
     1
102
RTVSPropertyOp22
 70
     1
102
RTVSPropertyOp23
 70
     1
102
RTVSPropertyOp24
 70
     1
102
RTVSPropertyOp25
 70
     1
102
RTVSPropertyOp26
 70
     1
102
RTVSPropertyOp27
 70
     1
102
RTVSPropertyOp28
 70
     1
102
RTVSPropertyOp29
 70
     1
102
RTVSPropertyOp30
 70
     1
102
RTVSPropertyOp31
 70
     1
102
RTVSPropertyOp32
 70
     1
102
RTVSPropertyOp33
 70
     1
102
RTVSPropertyOp34
 70
     1
102
RTVSPropertyOp35
 70
     1
102
RTVSPropertyOp36
 70
     1
102
RTVSPropertyOp37
 70
     1
102
RTVSPropertyOp38
 70
     1
102
RTVSPropertyOp39
 70
     1
102
RTVSPropertyOp40
 70
     1
102
RTVSPropertyOp41
 70
     1
102
RTVSPropertyOp42
 70
     1
102
RTVSPropertyOp43
 70
     1
102
RTVSPropertyOp44
 70
     1
102
RTVSPropertyOp45
 70
     1
102
RTVSPropertyOp46
 70
     1
102
RTVSPropertyOp47
 70
     1
102
RTVSPropertyOp48
 70
     1
102
RTVSPropertyOp49
 70
     1
102
RTVSPropertyOp50
 70
     1
102
RTVSPropertyOp51
 70
     0
102
RTVSPropertyOp52
 70
     0
102
RTVSPropertyOp53
 70
     1
102
RTVSPropertyOp54
 70
     1
102
RTVSPropertyOp55
 70
     1
102
RTVSPropertyOp56
 70
     1
102
RTVSPropertyOp57
 70
     1
102
RTVSPropertyOp58
 70
     1
102
RTVSPropertyOp59
 70
     1
102
RTVSPropertyOp60
 70
     1
102
RTVSPropertyOp61
 70
     1
102
RTVSPropertyOp62
 70
     1
  0
XRECORD
  5
231E
102
{ACAD_REACTORS
330
231D
102
}
330
231D
100
AcDbXrecord
280
     1
102
RTVSPost2010Prop28
280
     0
102
RTVSPost2010PropOp28
 70
     1
102
RTVSPost2010Prop29
280
     1
102
RTVSPost2010PropOp29
 70
     1
102
RTVSPost2010Prop30
280
     1
102
RTVSPost2010PropOp30
 70
     1
102
RTVSPost2010Prop31
280
     0
102
RTVSPost2010PropOp31
 70
     1
102
RTVSPost2010Prop32
280
     0
102
RTVSPost2010PropOp32
 70
     1
102
RTVSPost2010Prop33
280
     0
102
RTVSPost2010PropOp33
 70
     1
102
RTVSPost2010Prop34
280
     0
102
RTVSPost2010PropOp34
 70
     1
102
RTVSPost2010Prop35
280
     0
102
RTVSPost2010PropOp35
 70
     1
102
RTVSPost2010Prop36
280
     0
102
RTVSPost2010PropOp36
 70
     1
102
RTVSPost2010Prop37
 90
       50
102
RTVSPost2010PropOp37
 70
     1
102
RTVSPost2010Prop38
140
0.0
102
RTVSPost2010PropOp38
 70
     1
102
RTVSPost2010Prop39
140
1.0
102
RTVSPost2010PropOp39
 70
     1
102
RTVSPost2010Prop40
 90
        0
102
RTVSPost2010PropOp40
 70
     1
102
RTVSPost2010Prop41ColorIndex
 90
       18
102
RTVSPost2010Prop41ColorRGB
 90
        0
102
RTVSPost2010PropOp41
 70
     1
102
RTVSPost2010Prop42
 90
       50
102
RTVSPost2010PropOp42
 70
     1
102
RTVSPost2010Prop43
 90
        3
102
RTVSPost2010PropOp43
 70
     1
102
RTVSPost2010Prop44ColorIndex
 90
        5
102
RTVSPost2010Prop44ColorRGB
 90
      255
102
RTVSPost2010PropOp44
 70
     1
102
RTVSPost2010Prop45
280
     0
102
RTVSPost2010PropOp45
 70
     1
102
RTVSPost2010Prop46
 90
       50
102
RTVSPost2010PropOp46
 70
     1
102
RTVSPost2010Prop47
 90
       50
102
RTVSPost2010PropOp47
 70
     1
102
RTVSPost2010Prop48
 90
       50
102
RTVSPost2010PropOp48
 70
     1
102
RTVSPost2010Prop49
280
     0
102
RTVSPost2010PropOp49
 70
     1
102
RTVSPost2010Prop50
 90
       50
102
RTVSPost2010PropOp50
 70
     1
102
RTVSPost2010Prop51ColorIndex
 90
      256
102
RTVSPost2010Prop51ColorRGB
 90
-16777216
102
RTVSPost2010PropOp51
 70
     0
102
RTVSPost2010Prop52
140
1.0
102
RTVSPost2010PropOp52
 70
     0
102
RTVSPost2010Prop53
 90
        2
102
RTVSPost2010PropOp53
 70
     1
102
RTVSPost2010Prop54
  1
strokes_ogs.tif
102
RTVSPost2010PropOp54
 70
     1
102
RTVSPost2010Prop55
280
     0
102
RTVSPost2010PropOp55
 70
     1
102
RTVSPost2010Prop56
140
1.0
102
RTVSPost2010PropOp56
 70
     1
102
RTVSPost2010Prop57
140
1.0
102
RTVSPost2010PropOp57
 70
     1
102
RTVSPropertyOp0
 70
     0
102
RTVSPropertyOp1
 70
     0
102
RTVSPropertyOp2
 70
     0
102
RTVSPropertyOp3
 70
     0
102
RTVSPropertyOp4
 70
     0
102
RTVSPropertyOp5
 70
     0
102
RTVSPropertyOp6
 70
     0
102
RTVSPropertyOp7
 70
     0
102
RTVSPropertyOp8
 70
     0
102
RTVSPropertyOp9
 70
     0
102
RTVSPropertyOp10
 70
     0
102
RTVSPropertyOp11
 70
     0
102
RTVSPropertyOp12
 70
     0
102
RTVSPropertyOp13
 70
     0
102
RTVSPropertyOp14
 70
     2
102
RTVSPropertyOp15
 70
     0
102
RTVSPropertyOp16
 70
     0
102
RTVSPropertyOp17
 70
     0
102
RTVSPropertyOp18
 70
     0
102
RTVSPropertyOp19
 70
     0
102
RTVSPropertyOp20
 70
     0
102
RTVSPropertyOp21
 70
     0
102
RTVSPropertyOp22
 70
     0
102
RTVSPropertyOp23
 70
     0
102
RTVSPropertyOp24
 70
     0
102
RTVSPropertyOp25
 70
     0
102
RTVSPropertyOp26
 70
     0
102
RTVSPropertyOp27
 70
     0
102
RTVSPropertyOp28
 70
     1
102
RTVSPropertyOp29
 70
     1
102
RTVSPropertyOp30
 70
     1
102
RTVSPropertyOp31
 70
     1
102
RTVSPropertyOp32
 70
     1
102
RTVSPropertyOp33
 70
     1
102
RTVSPropertyOp34
 70
     1
102
RTVSPropertyOp35
 70
     1
102
RTVSPropertyOp36
 70
     1
102
RTVSPropertyOp37
 70
     1
102
RTVSPropertyOp38
 70
     1
102
RTVSPropertyOp39
 70
     1
102
RTVSPropertyOp40
 70
     1
102
RTVSPropertyOp41
 70
     1
102
RTVSPropertyOp42
 70
     1
102
RTVSPropertyOp43
 70
     1
102
RTVSPropertyOp44
 70
     1
102
RTVSPropertyOp45
 70
     1
102
RTVSPropertyOp46
 70
     1
102
RTVSPropertyOp47
 70
     1
102
RTVSPropertyOp48
 70
     1
102
RTVSPropertyOp49
 70
     1
102
RTVSPropertyOp50
 70
     1
102
RTVSPropertyOp51
 70
     0
102
RTVSPropertyOp52
 70
     0
102
RTVSPropertyOp53
 70
     1
102
RTVSPropertyOp54
 70
     1
102
RTVSPropertyOp55
 70
     1
102
RTVSPropertyOp56
 70
     1
102
RTVSPropertyOp57
 70
     1
102
RTVSPropertyOp58
 70
     1
102
RTVSPropertyOp59
 70
     1
102
RTVSPropertyOp60
 70
     1
102
RTVSPropertyOp61
 70
     1
102
RTVSPropertyOp62
 70
     1
  0
XRECORD
  5
230C
102
{ACAD_REACTORS
330
230B
102
}
330
230B
100
AcDbXrecord
280
     1
102
RTVSPost2010Prop28
280
     0
102
RTVSPost2010PropOp28
 70
     1
102
RTVSPost2010Prop29
280
     1
102
RTVSPost2010PropOp29
 70
     1
102
RTVSPost2010Prop30
280
     1
102
RTVSPost2010PropOp30
 70
     1
102
RTVSPost2010Prop31
280
     0
102
RTVSPost2010PropOp31
 70
     1
102
RTVSPost2010Prop32
280
     0
102
RTVSPost2010PropOp32
 70
     1
102
RTVSPost2010Prop33
280
     0
102
RTVSPost2010PropOp33
 70
     1
102
RTVSPost2010Prop34
280
     0
102
RTVSPost2010PropOp34
 70
     1
102
RTVSPost2010Prop35
280
     0
102
RTVSPost2010PropOp35
 70
     1
102
RTVSPost2010Prop36
280
     0
102
RTVSPost2010PropOp36
 70
     1
102
RTVSPost2010Prop37
 90
       50
102
RTVSPost2010PropOp37
 70
     1
102
RTVSPost2010Prop38
140
0.0
102
RTVSPost2010PropOp38
 70
     1
102
RTVSPost2010Prop39
140
1.0
102
RTVSPost2010PropOp39
 70
     1
102
RTVSPost2010Prop40
 90
        0
102
RTVSPost2010PropOp40
 70
     1
102
RTVSPost2010Prop41ColorIndex
 90
       18
102
RTVSPost2010Prop41ColorRGB
 90
        0
102
RTVSPost2010PropOp41
 70
     1
102
RTVSPost2010Prop42
 90
       50
102
RTVSPost2010PropOp42
 70
     1
102
RTVSPost2010Prop43
 90
        3
102
RTVSPost2010PropOp43
 70
     1
102
RTVSPost2010Prop44ColorIndex
 90
        5
102
RTVSPost2010Prop44ColorRGB
 90
      255
102
RTVSPost2010PropOp44
 70
     1
102
RTVSPost2010Prop45
280
     0
102
RTVSPost2010PropOp45
 70
     1
102
RTVSPost2010Prop46
 90
       50
102
RTVSPost2010PropOp46
 70
     1
102
RTVSPost2010Prop47
 90
       50
102
RTVSPost2010PropOp47
 70
     1
102
RTVSPost2010Prop48
 90
       50
102
RTVSPost2010PropOp48
 70
     1
102
RTVSPost2010Prop49
280
     0
102
RTVSPost2010PropOp49
 70
     1
102
RTVSPost2010Prop50
 90
       50
102
RTVSPost2010PropOp50
 70
     1
102
RTVSPost2010Prop51ColorIndex
 90
      256
102
RTVSPost2010Prop51ColorRGB
 90
-16777216
102
RTVSPost2010PropOp51
 70
     0
102
RTVSPost2010Prop52
140
1.0
102
RTVSPost2010PropOp52
 70
     0
102
RTVSPost2010Prop53
 90
        2
102
RTVSPost2010PropOp53
 70
     1
102
RTVSPost2010Prop54
  1
strokes_ogs.tif
102
RTVSPost2010PropOp54
 70
     1
102
RTVSPost2010Prop55
280
     0
102
RTVSPost2010PropOp55
 70
     1
102
RTVSPost2010Prop56
140
1.0
102
RTVSPost2010PropOp56
 70
     1
102
RTVSPost2010Prop57
140
1.0
102
RTVSPost2010PropOp57
 70
     1
102
RTVSPropertyOp0
 70
     1
102
RTVSPropertyOp1
 70
     1
102
RTVSPropertyOp2
 70
     1
102
RTVSPropertyOp3
 70
     1
102
RTVSPropertyOp4
 70
     1
102
RTVSPropertyOp5
 70
     1
102
RTVSPropertyOp6
 70
     1
102
RTVSPropertyOp7
 70
     1
102
RTVSPropertyOp8
 70
     1
102
RTVSPropertyOp9
 70
     1
102
RTVSPropertyOp10
 70
     1
102
RTVSPropertyOp11
 70
     1
102
RTVSPropertyOp12
 70
     1
102
RTVSPropertyOp13
 70
     1
102
RTVSPropertyOp14
 70
     1
102
RTVSPropertyOp15
 70
     1
102
RTVSPropertyOp16
 70
     1
102
RTVSPropertyOp17
 70
     1
102
RTVSPropertyOp18
 70
     1
102
RTVSPropertyOp19
 70
     1
102
RTVSPropertyOp20
 70
     1
102
RTVSPropertyOp21
 70
     1
102
RTVSPropertyOp22
 70
     1
102
RTVSPropertyOp23
 70
     1
102
RTVSPropertyOp24
 70
     1
102
RTVSPropertyOp25
 70
     1
102
RTVSPropertyOp26
 70
     1
102
RTVSPropertyOp27
 70
     1
102
RTVSPropertyOp28
 70
     1
102
RTVSPropertyOp29
 70
     1
102
RTVSPropertyOp30
 70
     1
102
RTVSPropertyOp31
 70
     1
102
RTVSPropertyOp32
 70
     1
102
RTVSPropertyOp33
 70
     1
102
RTVSPropertyOp34
 70
     1
102
RTVSPropertyOp35
 70
     1
102
RTVSPropertyOp36
 70
     1
102
RTVSPropertyOp37
 70
     1
102
RTVSPropertyOp38
 70
     1
102
RTVSPropertyOp39
 70
     1
102
RTVSPropertyOp40
 70
     1
102
RTVSPropertyOp41
 70
     1
102
RTVSPropertyOp42
 70
     1
102
RTVSPropertyOp43
 70
     1
102
RTVSPropertyOp44
 70
     1
102
RTVSPropertyOp45
 70
     1
102
RTVSPropertyOp46
 70
     1
102
RTVSPropertyOp47
 70
     1
102
RTVSPropertyOp48
 70
     1
102
RTVSPropertyOp49
 70
     1
102
RTVSPropertyOp50
 70
     1
102
RTVSPropertyOp51
 70
     0
102
RTVSPropertyOp52
 70
     0
102
RTVSPropertyOp53
 70
     1
102
RTVSPropertyOp54
 70
     1
102
RTVSPropertyOp55
 70
     1
102
RTVSPropertyOp56
 70
     1
102
RTVSPropertyOp57
 70
     1
102
RTVSPropertyOp58
 70
     1
102
RTVSPropertyOp59
 70
     1
102
RTVSPropertyOp60
 70
     1
102
RTVSPropertyOp61
 70
     1
102
RTVSPropertyOp62
 70
     1
  0
XRECORD
  5
232A
102
{ACAD_REACTORS
330
2329
102
}
330
2329
100
AcDbXrecord
280
     1
102
RTVSPost2010Prop28
280
     0
102
RTVSPost2010PropOp28
 70
     1
102
RTVSPost2010Prop29
280
     1
102
RTVSPost2010PropOp29
 70
     1
102
RTVSPost2010Prop30
280
     1
102
RTVSPost2010PropOp30
 70
     1
102
RTVSPost2010Prop31
280
     0
102
RTVSPost2010PropOp31
 70
     1
102
RTVSPost2010Prop32
280
     0
102
RTVSPost2010PropOp32
 70
     1
102
RTVSPost2010Prop33
280
     0
102
RTVSPost2010PropOp33
 70
     1
102
RTVSPost2010Prop34
280
     0
102
RTVSPost2010PropOp34
 70
     1
102
RTVSPost2010Prop35
280
     0
102
RTVSPost2010PropOp35
 70
     1
102
RTVSPost2010Prop36
280
     0
102
RTVSPost2010PropOp36
 70
     1
102
RTVSPost2010Prop37
 90
       50
102
RTVSPost2010PropOp37
 70
     1
102
RTVSPost2010Prop38
140
0.0
102
RTVSPost2010PropOp38
 70
     1
102
RTVSPost2010Prop39
140
1.0
102
RTVSPost2010PropOp39
 70
     1
102
RTVSPost2010Prop40
 90
        0
102
RTVSPost2010PropOp40
 70
     1
102
RTVSPost2010Prop41ColorIndex
 90
       18
102
RTVSPost2010Prop41ColorRGB
 90
        0
102
RTVSPost2010PropOp41
 70
     1
102
RTVSPost2010Prop42
 90
       50
102
RTVSPost2010PropOp42
 70
     1
102
RTVSPost2010Prop43
 90
        3
102
RTVSPost2010PropOp43
 70
     1
102
RTVSPost2010Prop44ColorIndex
 90
        5
102
RTVSPost2010Prop44ColorRGB
 90
      255
102
RTVSPost2010PropOp44
 70
     1
102
RTVSPost2010Prop45
280
     0
102
RTVSPost2010PropOp45
 70
     1
102
RTVSPost2010Prop46
 90
       50
102
RTVSPost2010PropOp46
 70
     1
102
RTVSPost2010Prop47
 90
       50
102
RTVSPost2010PropOp47
 70
     1
102
RTVSPost2010Prop48
 90
       50
102
RTVSPost2010PropOp48
 70
     1
102
RTVSPost2010Prop49
280
     0
102
RTVSPost2010PropOp49
 70
     1
102
RTVSPost2010Prop50
 90
       50
102
RTVSPost2010PropOp50
 70
     1
102
RTVSPost2010Prop51ColorIndex
 90
      256
102
RTVSPost2010Prop51ColorRGB
 90
-16777216
102
RTVSPost2010PropOp51
 70
     0
102
RTVSPost2010Prop52
140
1.0
102
RTVSPost2010PropOp52
 70
     0
102
RTVSPost2010Prop53
 90
        2
102
RTVSPost2010PropOp53
 70
     1
102
RTVSPost2010Prop54
  1
strokes_ogs.tif
102
RTVSPost2010PropOp54
 70
     1
102
RTVSPost2010Prop55
280
     0
102
RTVSPost2010PropOp55
 70
     1
102
RTVSPost2010Prop56
140
1.0
102
RTVSPost2010PropOp56
 70
     1
102
RTVSPost2010Prop57
140
1.0
102
RTVSPost2010PropOp57
 70
     1
102
RTVSPropertyOp0
 70
     1
102
RTVSPropertyOp1
 70
     1
102
RTVSPropertyOp2
 70
     1
102
RTVSPropertyOp3
 70
     1
102
RTVSPropertyOp4
 70
     1
102
RTVSPropertyOp5
 70
     1
102
RTVSPropertyOp6
 70
     1
102
RTVSPropertyOp7
 70
     1
102
RTVSPropertyOp8
 70
     1
102
RTVSPropertyOp9
 70
     1
102
RTVSPropertyOp10
 70
     1
102
RTVSPropertyOp11
 70
     1
102
RTVSPropertyOp12
 70
     1
102
RTVSPropertyOp13
 70
     1
102
RTVSPropertyOp14
 70
     1
102
RTVSPropertyOp15
 70
     1
102
RTVSPropertyOp16
 70
     1
102
RTVSPropertyOp17
 70
     1
102
RTVSPropertyOp18
 70
     1
102
RTVSPropertyOp19
 70
     1
102
RTVSPropertyOp20
 70
     1
102
RTVSPropertyOp21
 70
     1
102
RTVSPropertyOp22
 70
     1
102
RTVSPropertyOp23
 70
     1
102
RTVSPropertyOp24
 70
     1
102
RTVSPropertyOp25
 70
     1
102
RTVSPropertyOp26
 70
     1
102
RTVSPropertyOp27
 70
     1
102
RTVSPropertyOp28
 70
     1
102
RTVSPropertyOp29
 70
     1
102
RTVSPropertyOp30
 70
     1
102
RTVSPropertyOp31
 70
     1
102
RTVSPropertyOp32
 70
     1
102
RTVSPropertyOp33
 70
     1
102
RTVSPropertyOp34
 70
     1
102
RTVSPropertyOp35
 70
     1
102
RTVSPropertyOp36
 70
     1
102
RTVSPropertyOp37
 70
     1
102
RTVSPropertyOp38
 70
     1
102
RTVSPropertyOp39
 70
     1
102
RTVSPropertyOp40
 70
     1
102
RTVSPropertyOp41
 70
     1
102
RTVSPropertyOp42
 70
     1
102
RTVSPropertyOp43
 70
     1
102
RTVSPropertyOp44
 70
     1
102
RTVSPropertyOp45
 70
     1
102
RTVSPropertyOp46
 70
     1
102
RTVSPropertyOp47
 70
     1
102
RTVSPropertyOp48
 70
     1
102
RTVSPropertyOp49
 70
     1
102
RTVSPropertyOp50
 70
     1
102
RTVSPropertyOp51
 70
     0
102
RTVSPropertyOp52
 70
     0
102
RTVSPropertyOp53
 70
     1
102
RTVSPropertyOp54
 70
     1
102
RTVSPropertyOp55
 70
     1
102
RTVSPropertyOp56
 70
     1
102
RTVSPropertyOp57
 70
     1
102
RTVSPropertyOp58
 70
     1
102
RTVSPropertyOp59
 70
     1
102
RTVSPropertyOp60
 70
     1
102
RTVSPropertyOp61
 70
     1
102
RTVSPropertyOp62
 70
     1
  0
XRECORD
  5
2328
102
{ACAD_REACTORS
330
2327
102
}
330
2327
100
AcDbXrecord
280
     1
102
RTVSPost2010Prop28
280
     0
102
RTVSPost2010PropOp28
 70
     1
102
RTVSPost2010Prop29
280
     1
102
RTVSPost2010PropOp29
 70
     1
102
RTVSPost2010Prop30
280
     1
102
RTVSPost2010PropOp30
 70
     1
102
RTVSPost2010Prop31
280
     0
102
RTVSPost2010PropOp31
 70
     1
102
RTVSPost2010Prop32
280
     0
102
RTVSPost2010PropOp32
 70
     1
102
RTVSPost2010Prop33
280
     0
102
RTVSPost2010PropOp33
 70
     1
102
RTVSPost2010Prop34
280
     0
102
RTVSPost2010PropOp34
 70
     1
102
RTVSPost2010Prop35
280
     0
102
RTVSPost2010PropOp35
 70
     1
102
RTVSPost2010Prop36
280
     0
102
RTVSPost2010PropOp36
 70
     1
102
RTVSPost2010Prop37
 90
       50
102
RTVSPost2010PropOp37
 70
     1
102
RTVSPost2010Prop38
140
0.0
102
RTVSPost2010PropOp38
 70
     1
102
RTVSPost2010Prop39
140
1.0
102
RTVSPost2010PropOp39
 70
     1
102
RTVSPost2010Prop40
 90
        0
102
RTVSPost2010PropOp40
 70
     1
102
RTVSPost2010Prop41ColorIndex
 90
       18
102
RTVSPost2010Prop41ColorRGB
 90
        0
102
RTVSPost2010PropOp41
 70
     1
102
RTVSPost2010Prop42
 90
       50
102
RTVSPost2010PropOp42
 70
     1
102
RTVSPost2010Prop43
 90
        3
102
RTVSPost2010PropOp43
 70
     1
102
RTVSPost2010Prop44ColorIndex
 90
        5
102
RTVSPost2010Prop44ColorRGB
 90
      255
102
RTVSPost2010PropOp44
 70
     1
102
RTVSPost2010Prop45
280
     0
102
RTVSPost2010PropOp45
 70
     1
102
RTVSPost2010Prop46
 90
       50
102
RTVSPost2010PropOp46
 70
     1
102
RTVSPost2010Prop47
 90
       50
102
RTVSPost2010PropOp47
 70
     1
102
RTVSPost2010Prop48
 90
       50
102
RTVSPost2010PropOp48
 70
     1
102
RTVSPost2010Prop49
280
     0
102
RTVSPost2010PropOp49
 70
     1
102
RTVSPost2010Prop50
 90
       50
102
RTVSPost2010PropOp50
 70
     1
102
RTVSPost2010Prop51ColorIndex
 90
      256
102
RTVSPost2010Prop51ColorRGB
 90
-16777216
102
RTVSPost2010PropOp51
 70
     0
102
RTVSPost2010Prop52
140
1.0
102
RTVSPost2010PropOp52
 70
     0
102
RTVSPost2010Prop53
 90
        2
102
RTVSPost2010PropOp53
 70
     1
102
RTVSPost2010Prop54
  1
strokes_ogs.tif
102
RTVSPost2010PropOp54
 70
     1
102
RTVSPost2010Prop55
280
     0
102
RTVSPost2010PropOp55
 70
     1
102
RTVSPost2010Prop56
140
1.0
102
RTVSPost2010PropOp56
 70
     1
102
RTVSPost2010Prop57
140
1.0
102
RTVSPost2010PropOp57
 70
     1
102
RTVSPropertyOp0
 70
     1
102
RTVSPropertyOp1
 70
     1
102
RTVSPropertyOp2
 70
     1
102
RTVSPropertyOp3
 70
     1
102
RTVSPropertyOp4
 70
     1
102
RTVSPropertyOp5
 70
     1
102
RTVSPropertyOp6
 70
     1
102
RTVSPropertyOp7
 70
     1
102
RTVSPropertyOp8
 70
     1
102
RTVSPropertyOp9
 70
     1
102
RTVSPropertyOp10
 70
     1
102
RTVSPropertyOp11
 70
     1
102
RTVSPropertyOp12
 70
     1
102
RTVSPropertyOp13
 70
     1
102
RTVSPropertyOp14
 70
     1
102
RTVSPropertyOp15
 70
     1
102
RTVSPropertyOp16
 70
     1
102
RTVSPropertyOp17
 70
     1
102
RTVSPropertyOp18
 70
     1
102
RTVSPropertyOp19
 70
     1
102
RTVSPropertyOp20
 70
     1
102
RTVSPropertyOp21
 70
     1
102
RTVSPropertyOp22
 70
     1
102
RTVSPropertyOp23
 70
     1
102
RTVSPropertyOp24
 70
     1
102
RTVSPropertyOp25
 70
     1
102
RTVSPropertyOp26
 70
     1
102
RTVSPropertyOp27
 70
     1
102
RTVSPropertyOp28
 70
     1
102
RTVSPropertyOp29
 70
     1
102
RTVSPropertyOp30
 70
     1
102
RTVSPropertyOp31
 70
     1
102
RTVSPropertyOp32
 70
     1
102
RTVSPropertyOp33
 70
     1
102
RTVSPropertyOp34
 70
     1
102
RTVSPropertyOp35
 70
     1
102
RTVSPropertyOp36
 70
     1
102
RTVSPropertyOp37
 70
     1
102
RTVSPropertyOp38
 70
     1
102
RTVSPropertyOp39
 70
     1
102
RTVSPropertyOp40
 70
     1
102
RTVSPropertyOp41
 70
     1
102
RTVSPropertyOp42
 70
     1
102
RTVSPropertyOp43
 70
     1
102
RTVSPropertyOp44
 70
     1
102
RTVSPropertyOp45
 70
     1
102
RTVSPropertyOp46
 70
     1
102
RTVSPropertyOp47
 70
     1
102
RTVSPropertyOp48
 70
     1
102
RTVSPropertyOp49
 70
     1
102
RTVSPropertyOp50
 70
     1
102
RTVSPropertyOp51
 70
     0
102
RTVSPropertyOp52
 70
     0
102
RTVSPropertyOp53
 70
     1
102
RTVSPropertyOp54
 70
     1
102
RTVSPropertyOp55
 70
     1
102
RTVSPropertyOp56
 70
     1
102
RTVSPropertyOp57
 70
     1
102
RTVSPropertyOp58
 70
     1
102
RTVSPropertyOp59
 70
     1
102
RTVSPropertyOp60
 70
     1
102
RTVSPropertyOp61
 70
     1
102
RTVSPropertyOp62
 70
     1
  0
XRECORD
  5
2322
102
{ACAD_REACTORS
330
2321
102
}
330
2321
100
AcDbXrecord
280
     1
102
RTVSPost2010Prop28
280
     0
102
RTVSPost2010PropOp28
 70
     1
102
RTVSPost2010Prop29
280
     1
102
RTVSPost2010PropOp29
 70
     1
102
RTVSPost2010Prop30
280
     1
102
RTVSPost2010PropOp30
 70
     1
102
RTVSPost2010Prop31
280
     0
102
RTVSPost2010PropOp31
 70
     1
102
RTVSPost2010Prop32
280
     0
102
RTVSPost2010PropOp32
 70
     1
102
RTVSPost2010Prop33
280
     0
102
RTVSPost2010PropOp33
 70
     1
102
RTVSPost2010Prop34
280
     0
102
RTVSPost2010PropOp34
 70
     1
102
RTVSPost2010Prop35
280
     0
102
RTVSPost2010PropOp35
 70
     1
102
RTVSPost2010Prop36
280
     0
102
RTVSPost2010PropOp36
 70
     1
102
RTVSPost2010Prop37
 90
       50
102
RTVSPost2010PropOp37
 70
     1
102
RTVSPost2010Prop38
140
0.0
102
RTVSPost2010PropOp38
 70
     1
102
RTVSPost2010Prop39
140
1.0
102
RTVSPost2010PropOp39
 70
     1
102
RTVSPost2010Prop40
 90
        0
102
RTVSPost2010PropOp40
 70
     1
102
RTVSPost2010Prop41ColorIndex
 90
       18
102
RTVSPost2010Prop41ColorRGB
 90
        0
102
RTVSPost2010PropOp41
 70
     1
102
RTVSPost2010Prop42
 90
       50
102
RTVSPost2010PropOp42
 70
     1
102
RTVSPost2010Prop43
 90
        3
102
RTVSPost2010PropOp43
 70
     1
102
RTVSPost2010Prop44ColorIndex
 90
        5
102
RTVSPost2010Prop44ColorRGB
 90
      255
102
RTVSPost2010PropOp44
 70
     1
102
RTVSPost2010Prop45
280
     0
102
RTVSPost2010PropOp45
 70
     1
102
RTVSPost2010Prop46
 90
       50
102
RTVSPost2010PropOp46
 70
     1
102
RTVSPost2010Prop47
 90
       50
102
RTVSPost2010PropOp47
 70
     1
102
RTVSPost2010Prop48
 90
       50
102
RTVSPost2010PropOp48
 70
     1
102
RTVSPost2010Prop49
280
     0
102
RTVSPost2010PropOp49
 70
     1
102
RTVSPost2010Prop50
 90
       50
102
RTVSPost2010PropOp50
 70
     1
102
RTVSPost2010Prop51ColorIndex
 90
      256
102
RTVSPost2010Prop51ColorRGB
 90
-16777216
102
RTVSPost2010PropOp51
 70
     0
102
RTVSPost2010Prop52
140
1.0
102
RTVSPost2010PropOp52
 70
     0
102
RTVSPost2010Prop53
 90
        2
102
RTVSPost2010PropOp53
 70
     1
102
RTVSPost2010Prop54
  1
strokes_ogs.tif
102
RTVSPost2010PropOp54
 70
     1
102
RTVSPost2010Prop55
280
     0
102
RTVSPost2010PropOp55
 70
     1
102
RTVSPost2010Prop56
140
1.0
102
RTVSPost2010PropOp56
 70
     1
102
RTVSPost2010Prop57
140
1.0
102
RTVSPost2010PropOp57
 70
     1
102
RTVSPropertyOp0
 70
     1
102
RTVSPropertyOp1
 70
     1
102
RTVSPropertyOp2
 70
     1
102
RTVSPropertyOp3
 70
     1
102
RTVSPropertyOp4
 70
     1
102
RTVSPropertyOp5
 70
     1
102
RTVSPropertyOp6
 70
     1
102
RTVSPropertyOp7
 70
     1
102
RTVSPropertyOp8
 70
     1
102
RTVSPropertyOp9
 70
     1
102
RTVSPropertyOp10
 70
     1
102
RTVSPropertyOp11
 70
     1
102
RTVSPropertyOp12
 70
     1
102
RTVSPropertyOp13
 70
     1
102
RTVSPropertyOp14
 70
     1
102
RTVSPropertyOp15
 70
     1
102
RTVSPropertyOp16
 70
     1
102
RTVSPropertyOp17
 70
     1
102
RTVSPropertyOp18
 70
     1
102
RTVSPropertyOp19
 70
     1
102
RTVSPropertyOp20
 70
     1
102
RTVSPropertyOp21
 70
     1
102
RTVSPropertyOp22
 70
     1
102
RTVSPropertyOp23
 70
     1
102
RTVSPropertyOp24
 70
     1
102
RTVSPropertyOp25
 70
     1
102
RTVSPropertyOp26
 70
     1
102
RTVSPropertyOp27
 70
     1
102
RTVSPropertyOp28
 70
     1
102
RTVSPropertyOp29
 70
     1
102
RTVSPropertyOp30
 70
     1
102
RTVSPropertyOp31
 70
     1
102
RTVSPropertyOp32
 70
     1
102
RTVSPropertyOp33
 70
     1
102
RTVSPropertyOp34
 70
     1
102
RTVSPropertyOp35
 70
     1
102
RTVSPropertyOp36
 70
     1
102
RTVSPropertyOp37
 70
     1
102
RTVSPropertyOp38
 70
     1
102
RTVSPropertyOp39
 70
     1
102
RTVSPropertyOp40
 70
     1
102
RTVSPropertyOp41
 70
     1
102
RTVSPropertyOp42
 70
     1
102
RTVSPropertyOp43
 70
     1
102
RTVSPropertyOp44
 70
     1
102
RTVSPropertyOp45
 70
     1
102
RTVSPropertyOp46
 70
     1
102
RTVSPropertyOp47
 70
     1
102
RTVSPropertyOp48
 70
     1
102
RTVSPropertyOp49
 70
     1
102
RTVSPropertyOp50
 70
     1
102
RTVSPropertyOp51
 70
     0
102
RTVSPropertyOp52
 70
     0
102
RTVSPropertyOp53
 70
     1
102
RTVSPropertyOp54
 70
     1
102
RTVSPropertyOp55
 70
     1
102
RTVSPropertyOp56
 70
     1
102
RTVSPropertyOp57
 70
     1
102
RTVSPropertyOp58
 70
     1
102
RTVSPropertyOp59
 70
     1
102
RTVSPropertyOp60
 70
     1
102
RTVSPropertyOp61
 70
     1
102
RTVSPropertyOp62
 70
     1
  0
XRECORD
  5
2324
102
{ACAD_REACTORS
330
2323
102
}
330
2323
100
AcDbXrecord
280
     1
102
RTVSPost2010Prop28
280
     0
102
RTVSPost2010PropOp28
 70
     1
102
RTVSPost2010Prop29
280
     1
102
RTVSPost2010PropOp29
 70
     1
102
RTVSPost2010Prop30
280
     1
102
RTVSPost2010PropOp30
 70
     1
102
RTVSPost2010Prop31
280
     0
102
RTVSPost2010PropOp31
 70
     1
102
RTVSPost2010Prop32
280
     0
102
RTVSPost2010PropOp32
 70
     1
102
RTVSPost2010Prop33
280
     0
102
RTVSPost2010PropOp33
 70
     1
102
RTVSPost2010Prop34
280
     0
102
RTVSPost2010PropOp34
 70
     1
102
RTVSPost2010Prop35
280
     0
102
RTVSPost2010PropOp35
 70
     1
102
RTVSPost2010Prop36
280
     0
102
RTVSPost2010PropOp36
 70
     1
102
RTVSPost2010Prop37
 90
       50
102
RTVSPost2010PropOp37
 70
     1
102
RTVSPost2010Prop38
140
0.0
102
RTVSPost2010PropOp38
 70
     1
102
RTVSPost2010Prop39
140
1.0
102
RTVSPost2010PropOp39
 70
     1
102
RTVSPost2010Prop40
 90
        0
102
RTVSPost2010PropOp40
 70
     1
102
RTVSPost2010Prop41ColorIndex
 90
       18
102
RTVSPost2010Prop41ColorRGB
 90
        0
102
RTVSPost2010PropOp41
 70
     1
102
RTVSPost2010Prop42
 90
       50
102
RTVSPost2010PropOp42
 70
     1
102
RTVSPost2010Prop43
 90
        3
102
RTVSPost2010PropOp43
 70
     1
102
RTVSPost2010Prop44ColorIndex
 90
        5
102
RTVSPost2010Prop44ColorRGB
 90
      255
102
RTVSPost2010PropOp44
 70
     1
102
RTVSPost2010Prop45
280
     0
102
RTVSPost2010PropOp45
 70
     1
102
RTVSPost2010Prop46
 90
       50
102
RTVSPost2010PropOp46
 70
     1
102
RTVSPost2010Prop47
 90
       50
102
RTVSPost2010PropOp47
 70
     1
102
RTVSPost2010Prop48
 90
       50
102
RTVSPost2010PropOp48
 70
     1
102
RTVSPost2010Prop49
280
     0
102
RTVSPost2010PropOp49
 70
     1
102
RTVSPost2010Prop50
 90
       50
102
RTVSPost2010PropOp50
 70
     1
102
RTVSPost2010Prop51ColorIndex
 90
      256
102
RTVSPost2010Prop51ColorRGB
 90
-16777216
102
RTVSPost2010PropOp51
 70
     0
102
RTVSPost2010Prop52
140
1.0
102
RTVSPost2010PropOp52
 70
     0
102
RTVSPost2010Prop53
 90
        2
102
RTVSPost2010PropOp53
 70
     1
102
RTVSPost2010Prop54
  1
strokes_ogs.tif
102
RTVSPost2010PropOp54
 70
     1
102
RTVSPost2010Prop55
280
     0
102
RTVSPost2010PropOp55
 70
     1
102
RTVSPost2010Prop56
140
1.0
102
RTVSPost2010PropOp56
 70
     1
102
RTVSPost2010Prop57
140
1.0
102
RTVSPost2010PropOp57
 70
     1
102
RTVSPropertyOp0
 70
     1
102
RTVSPropertyOp1
 70
     1
102
RTVSPropertyOp2
 70
     1
102
RTVSPropertyOp3
 70
     1
102
RTVSPropertyOp4
 70
     1
102
RTVSPropertyOp5
 70
     1
102
RTVSPropertyOp6
 70
     1
102
RTVSPropertyOp7
 70
     1
102
RTVSPropertyOp8
 70
     1
102
RTVSPropertyOp9
 70
     1
102
RTVSPropertyOp10
 70
     1
102
RTVSPropertyOp11
 70
     1
102
RTVSPropertyOp12
 70
     1
102
RTVSPropertyOp13
 70
     1
102
RTVSPropertyOp14
 70
     1
102
RTVSPropertyOp15
 70
     1
102
RTVSPropertyOp16
 70
     1
102
RTVSPropertyOp17
 70
     1
102
RTVSPropertyOp18
 70
     1
102
RTVSPropertyOp19
 70
     1
102
RTVSPropertyOp20
 70
     1
102
RTVSPropertyOp21
 70
     1
102
RTVSPropertyOp22
 70
     1
102
RTVSPropertyOp23
 70
     1
102
RTVSPropertyOp24
 70
     1
102
RTVSPropertyOp25
 70
     1
102
RTVSPropertyOp26
 70
     1
102
RTVSPropertyOp27
 70
     1
102
RTVSPropertyOp28
 70
     1
102
RTVSPropertyOp29
 70
     1
102
RTVSPropertyOp30
 70
     1
102
RTVSPropertyOp31
 70
     1
102
RTVSPropertyOp32
 70
     1
102
RTVSPropertyOp33
 70
     1
102
RTVSPropertyOp34
 70
     1
102
RTVSPropertyOp35
 70
     1
102
RTVSPropertyOp36
 70
     1
102
RTVSPropertyOp37
 70
     1
102
RTVSPropertyOp38
 70
     1
102
RTVSPropertyOp39
 70
     1
102
RTVSPropertyOp40
 70
     1
102
RTVSPropertyOp41
 70
     1
102
RTVSPropertyOp42
 70
     1
102
RTVSPropertyOp43
 70
     1
102
RTVSPropertyOp44
 70
     1
102
RTVSPropertyOp45
 70
     1
102
RTVSPropertyOp46
 70
     1
102
RTVSPropertyOp47
 70
     1
102
RTVSPropertyOp48
 70
     1
102
RTVSPropertyOp49
 70
     1
102
RTVSPropertyOp50
 70
     1
102
RTVSPropertyOp51
 70
     0
102
RTVSPropertyOp52
 70
     0
102
RTVSPropertyOp53
 70
     1
102
RTVSPropertyOp54
 70
     1
102
RTVSPropertyOp55
 70
     1
102
RTVSPropertyOp56
 70
     1
102
RTVSPropertyOp57
 70
     1
102
RTVSPropertyOp58
 70
     1
102
RTVSPropertyOp59
 70
     1
102
RTVSPropertyOp60
 70
     1
102
RTVSPropertyOp61
 70
     1
102
RTVSPropertyOp62
 70
     1
  0
XRECORD
  5
2312
102
{ACAD_REACTORS
330
2311
102
}
330
2311
100
AcDbXrecord
280
     1
102
RTVSPost2010Prop28
280
     0
102
RTVSPost2010PropOp28
 70
     1
102
RTVSPost2010Prop29
280
     1
102
RTVSPost2010PropOp29
 70
     1
102
RTVSPost2010Prop30
280
     1
102
RTVSPost2010PropOp30
 70
     1
102
RTVSPost2010Prop31
280
     0
102
RTVSPost2010PropOp31
 70
     1
102
RTVSPost2010Prop32
280
     0
102
RTVSPost2010PropOp32
 70
     1
102
RTVSPost2010Prop33
280
     0
102
RTVSPost2010PropOp33
 70
     1
102
RTVSPost2010Prop34
280
     0
102
RTVSPost2010PropOp34
 70
     1
102
RTVSPost2010Prop35
280
     0
102
RTVSPost2010PropOp35
 70
     1
102
RTVSPost2010Prop36
280
     0
102
RTVSPost2010PropOp36
 70
     1
102
RTVSPost2010Prop37
 90
       50
102
RTVSPost2010PropOp37
 70
     1
102
RTVSPost2010Prop38
140
0.0
102
RTVSPost2010PropOp38
 70
     1
102
RTVSPost2010Prop39
140
1.0
102
RTVSPost2010PropOp39
 70
     1
102
RTVSPost2010Prop40
 90
        0
102
RTVSPost2010PropOp40
 70
     1
102
RTVSPost2010Prop41ColorIndex
 90
       18
102
RTVSPost2010Prop41ColorRGB
 90
        0
102
RTVSPost2010PropOp41
 70
     1
102
RTVSPost2010Prop42
 90
       50
102
RTVSPost2010PropOp42
 70
     1
102
RTVSPost2010Prop43
 90
        3
102
RTVSPost2010PropOp43
 70
     1
102
RTVSPost2010Prop44ColorIndex
 90
        5
102
RTVSPost2010Prop44ColorRGB
 90
      255
102
RTVSPost2010PropOp44
 70
     1
102
RTVSPost2010Prop45
280
     0
102
RTVSPost2010PropOp45
 70
     1
102
RTVSPost2010Prop46
 90
       50
102
RTVSPost2010PropOp46
 70
     1
102
RTVSPost2010Prop47
 90
       50
102
RTVSPost2010PropOp47
 70
     1
102
RTVSPost2010Prop48
 90
       50
102
RTVSPost2010PropOp48
 70
     1
102
RTVSPost2010Prop49
280
     0
102
RTVSPost2010PropOp49
 70
     1
102
RTVSPost2010Prop50
 90
       50
102
RTVSPost2010PropOp50
 70
     1
102
RTVSPost2010Prop51ColorIndex
 90
      256
102
RTVSPost2010Prop51ColorRGB
 90
-16777216
102
RTVSPost2010PropOp51
 70
     0
102
RTVSPost2010Prop52
140
1.0
102
RTVSPost2010PropOp52
 70
     0
102
RTVSPost2010Prop53
 90
        2
102
RTVSPost2010PropOp53
 70
     1
102
RTVSPost2010Prop54
  1
strokes_ogs.tif
102
RTVSPost2010PropOp54
 70
     1
102
RTVSPost2010Prop55
280
     0
102
RTVSPost2010PropOp55
 70
     1
102
RTVSPost2010Prop56
140
1.0
102
RTVSPost2010PropOp56
 70
     1
102
RTVSPost2010Prop57
140
1.0
102
RTVSPost2010PropOp57
 70
     1
102
RTVSPropertyOp0
 70
     1
102
RTVSPropertyOp1
 70
     1
102
RTVSPropertyOp2
 70
     1
102
RTVSPropertyOp3
 70
     1
102
RTVSPropertyOp4
 70
     1
102
RTVSPropertyOp5
 70
     1
102
RTVSPropertyOp6
 70
     1
102
RTVSPropertyOp7
 70
     1
102
RTVSPropertyOp8
 70
     1
102
RTVSPropertyOp9
 70
     1
102
RTVSPropertyOp10
 70
     1
102
RTVSPropertyOp11
 70
     1
102
RTVSPropertyOp12
 70
     1
102
RTVSPropertyOp13
 70
     1
102
RTVSPropertyOp14
 70
     1
102
RTVSPropertyOp15
 70
     1
102
RTVSPropertyOp16
 70
     1
102
RTVSPropertyOp17
 70
     1
102
RTVSPropertyOp18
 70
     1
102
RTVSPropertyOp19
 70
     1
102
RTVSPropertyOp20
 70
     1
102
RTVSPropertyOp21
 70
     1
102
RTVSPropertyOp22
 70
     1
102
RTVSPropertyOp23
 70
     1
102
RTVSPropertyOp24
 70
     1
102
RTVSPropertyOp25
 70
     1
102
RTVSPropertyOp26
 70
     1
102
RTVSPropertyOp27
 70
     1
102
RTVSPropertyOp28
 70
     1
102
RTVSPropertyOp29
 70
     1
102
RTVSPropertyOp30
 70
     1
102
RTVSPropertyOp31
 70
     1
102
RTVSPropertyOp32
 70
     1
102
RTVSPropertyOp33
 70
     1
102
RTVSPropertyOp34
 70
     1
102
RTVSPropertyOp35
 70
     1
102
RTVSPropertyOp36
 70
     1
102
RTVSPropertyOp37
 70
     1
102
RTVSPropertyOp38
 70
     1
102
RTVSPropertyOp39
 70
     1
102
RTVSPropertyOp40
 70
     1
102
RTVSPropertyOp41
 70
     1
102
RTVSPropertyOp42
 70
     1
102
RTVSPropertyOp43
 70
     1
102
RTVSPropertyOp44
 70
     1
102
RTVSPropertyOp45
 70
     1
102
RTVSPropertyOp46
 70
     1
102
RTVSPropertyOp47
 70
     1
102
RTVSPropertyOp48
 70
     1
102
RTVSPropertyOp49
 70
     1
102
RTVSPropertyOp50
 70
     1
102
RTVSPropertyOp51
 70
     0
102
RTVSPropertyOp52
 70
     0
102
RTVSPropertyOp53
 70
     1
102
RTVSPropertyOp54
 70
     1
102
RTVSPropertyOp55
 70
     1
102
RTVSPropertyOp56
 70
     1
102
RTVSPropertyOp57
 70
     1
102
RTVSPropertyOp58
 70
     1
102
RTVSPropertyOp59
 70
     1
102
RTVSPropertyOp60
 70
     1
102
RTVSPropertyOp61
 70
     1
102
RTVSPropertyOp62
 70
     1
  0
XRECORD
  5
2306
102
{ACAD_REACTORS
330
2305
102
}
330
2305
100
AcDbXrecord
280
     1
102
RTVSPost2010Prop28
280
     0
102
RTVSPost2010PropOp28
 70
     1
102
RTVSPost2010Prop29
280
     1
102
RTVSPost2010PropOp29
 70
     1
102
RTVSPost2010Prop30
280
     1
102
RTVSPost2010PropOp30
 70
     1
102
RTVSPost2010Prop31
280
     0
102
RTVSPost2010PropOp31
 70
     1
102
RTVSPost2010Prop32
280
     0
102
RTVSPost2010PropOp32
 70
     1
102
RTVSPost2010Prop33
280
     0
102
RTVSPost2010PropOp33
 70
     1
102
RTVSPost2010Prop34
280
     0
102
RTVSPost2010PropOp34
 70
     1
102
RTVSPost2010Prop35
280
     0
102
RTVSPost2010PropOp35
 70
     1
102
RTVSPost2010Prop36
280
     0
102
RTVSPost2010PropOp36
 70
     1
102
RTVSPost2010Prop37
 90
       50
102
RTVSPost2010PropOp37
 70
     1
102
RTVSPost2010Prop38
140
0.0
102
RTVSPost2010PropOp38
 70
     1
102
RTVSPost2010Prop39
140
1.0
102
RTVSPost2010PropOp39
 70
     1
102
RTVSPost2010Prop40
 90
        0
102
RTVSPost2010PropOp40
 70
     1
102
RTVSPost2010Prop41ColorIndex
 90
       18
102
RTVSPost2010Prop41ColorRGB
 90
        0
102
RTVSPost2010PropOp41
 70
     1
102
RTVSPost2010Prop42
 90
       50
102
RTVSPost2010PropOp42
 70
     1
102
RTVSPost2010Prop43
 90
        3
102
RTVSPost2010PropOp43
 70
     1
102
RTVSPost2010Prop44ColorIndex
 90
        5
102
RTVSPost2010Prop44ColorRGB
 90
      255
102
RTVSPost2010PropOp44
 70
     1
102
RTVSPost2010Prop45
280
     0
102
RTVSPost2010PropOp45
 70
     1
102
RTVSPost2010Prop46
 90
       50
102
RTVSPost2010PropOp46
 70
     1
102
RTVSPost2010Prop47
 90
       50
102
RTVSPost2010PropOp47
 70
     1
102
RTVSPost2010Prop48
 90
       50
102
RTVSPost2010PropOp48
 70
     1
102
RTVSPost2010Prop49
280
     0
102
RTVSPost2010PropOp49
 70
     1
102
RTVSPost2010Prop50
 90
       50
102
RTVSPost2010PropOp50
 70
     1
102
RTVSPost2010Prop51ColorIndex
 90
      256
102
RTVSPost2010Prop51ColorRGB
 90
-16777216
102
RTVSPost2010PropOp51
 70
     0
102
RTVSPost2010Prop52
140
1.0
102
RTVSPost2010PropOp52
 70
     0
102
RTVSPost2010Prop53
 90
        2
102
RTVSPost2010PropOp53
 70
     1
102
RTVSPost2010Prop54
  1
strokes_ogs.tif
102
RTVSPost2010PropOp54
 70
     1
102
RTVSPost2010Prop55
280
     0
102
RTVSPost2010PropOp55
 70
     1
102
RTVSPost2010Prop56
140
1.0
102
RTVSPost2010PropOp56
 70
     1
102
RTVSPost2010Prop57
140
1.0
102
RTVSPost2010PropOp57
 70
     1
102
RTVSPropertyOp0
 70
     1
102
RTVSPropertyOp1
 70
     1
102
RTVSPropertyOp2
 70
     1
102
RTVSPropertyOp3
 70
     1
102
RTVSPropertyOp4
 70
     1
102
RTVSPropertyOp5
 70
     1
102
RTVSPropertyOp6
 70
     1
102
RTVSPropertyOp7
 70
     1
102
RTVSPropertyOp8
 70
     1
102
RTVSPropertyOp9
 70
     1
102
RTVSPropertyOp10
 70
     1
102
RTVSPropertyOp11
 70
     1
102
RTVSPropertyOp12
 70
     1
102
RTVSPropertyOp13
 70
     1
102
RTVSPropertyOp14
 70
     1
102
RTVSPropertyOp15
 70
     1
102
RTVSPropertyOp16
 70
     1
102
RTVSPropertyOp17
 70
     1
102
RTVSPropertyOp18
 70
     1
102
RTVSPropertyOp19
 70
     1
102
RTVSPropertyOp20
 70
     1
102
RTVSPropertyOp21
 70
     1
102
RTVSPropertyOp22
 70
     1
102
RTVSPropertyOp23
 70
     1
102
RTVSPropertyOp24
 70
     1
102
RTVSPropertyOp25
 70
     1
102
RTVSPropertyOp26
 70
     1
102
RTVSPropertyOp27
 70
     1
102
RTVSPropertyOp28
 70
     1
102
RTVSPropertyOp29
 70
     1
102
RTVSPropertyOp30
 70
     1
102
RTVSPropertyOp31
 70
     1
102
RTVSPropertyOp32
 70
     1
102
RTVSPropertyOp33
 70
     1
102
RTVSPropertyOp34
 70
     1
102
RTVSPropertyOp35
 70
     1
102
RTVSPropertyOp36
 70
     1
102
RTVSPropertyOp37
 70
     1
102
RTVSPropertyOp38
 70
     1
102
RTVSPropertyOp39
 70
     1
102
RTVSPropertyOp40
 70
     1
102
RTVSPropertyOp41
 70
     1
102
RTVSPropertyOp42
 70
     1
102
RTVSPropertyOp43
 70
     1
102
RTVSPropertyOp44
 70
     1
102
RTVSPropertyOp45
 70
     1
102
RTVSPropertyOp46
 70
     1
102
RTVSPropertyOp47
 70
     1
102
RTVSPropertyOp48
 70
     1
102
RTVSPropertyOp49
 70
     1
102
RTVSPropertyOp50
 70
     1
102
RTVSPropertyOp51
 70
     0
102
RTVSPropertyOp52
 70
     0
102
RTVSPropertyOp53
 70
     1
102
RTVSPropertyOp54
 70
     1
102
RTVSPropertyOp55
 70
     1
102
RTVSPropertyOp56
 70
     1
102
RTVSPropertyOp57
 70
     1
102
RTVSPropertyOp58
 70
     1
102
RTVSPropertyOp59
 70
     1
102
RTVSPropertyOp60
 70
     1
102
RTVSPropertyOp61
 70
     1
102
RTVSPropertyOp62
 70
     1
  0
XRECORD
  5
2326
102
{ACAD_REACTORS
330
2325
102
}
330
2325
100
AcDbXrecord
280
     1
102
RTVSPost2010Prop28
280
     0
102
RTVSPost2010PropOp28
 70
     1
102
RTVSPost2010Prop29
280
     1
102
RTVSPost2010PropOp29
 70
     1
102
RTVSPost2010Prop30
280
     1
102
RTVSPost2010PropOp30
 70
     1
102
RTVSPost2010Prop31
280
     0
102
RTVSPost2010PropOp31
 70
     1
102
RTVSPost2010Prop32
280
     0
102
RTVSPost2010PropOp32
 70
     1
102
RTVSPost2010Prop33
280
     0
102
RTVSPost2010PropOp33
 70
     1
102
RTVSPost2010Prop34
280
     0
102
RTVSPost2010PropOp34
 70
     1
102
RTVSPost2010Prop35
280
     0
102
RTVSPost2010PropOp35
 70
     1
102
RTVSPost2010Prop36
280
     0
102
RTVSPost2010PropOp36
 70
     1
102
RTVSPost2010Prop37
 90
       50
102
RTVSPost2010PropOp37
 70
     1
102
RTVSPost2010Prop38
140
0.0
102
RTVSPost2010PropOp38
 70
     1
102
RTVSPost2010Prop39
140
1.0
102
RTVSPost2010PropOp39
 70
     1
102
RTVSPost2010Prop40
 90
        0
102
RTVSPost2010PropOp40
 70
     1
102
RTVSPost2010Prop41ColorIndex
 90
       18
102
RTVSPost2010Prop41ColorRGB
 90
        0
102
RTVSPost2010PropOp41
 70
     1
102
RTVSPost2010Prop42
 90
       50
102
RTVSPost2010PropOp42
 70
     1
102
RTVSPost2010Prop43
 90
        3
102
RTVSPost2010PropOp43
 70
     1
102
RTVSPost2010Prop44ColorIndex
 90
        5
102
RTVSPost2010Prop44ColorRGB
 90
      255
102
RTVSPost2010PropOp44
 70
     1
102
RTVSPost2010Prop45
280
     0
102
RTVSPost2010PropOp45
 70
     1
102
RTVSPost2010Prop46
 90
       50
102
RTVSPost2010PropOp46
 70
     1
102
RTVSPost2010Prop47
 90
       50
102
RTVSPost2010PropOp47
 70
     1
102
RTVSPost2010Prop48
 90
       50
102
RTVSPost2010PropOp48
 70
     1
102
RTVSPost2010Prop49
280
     0
102
RTVSPost2010PropOp49
 70
     1
102
RTVSPost2010Prop50
 90
       50
102
RTVSPost2010PropOp50
 70
     1
102
RTVSPost2010Prop51ColorIndex
 90
      256
102
RTVSPost2010Prop51ColorRGB
 90
-16777216
102
RTVSPost2010PropOp51
 70
     0
102
RTVSPost2010Prop52
140
1.0
102
RTVSPost2010PropOp52
 70
     0
102
RTVSPost2010Prop53
 90
        2
102
RTVSPost2010PropOp53
 70
     1
102
RTVSPost2010Prop54
  1
strokes_ogs.tif
102
RTVSPost2010PropOp54
 70
     1
102
RTVSPost2010Prop55
280
     0
102
RTVSPost2010PropOp55
 70
     1
102
RTVSPost2010Prop56
140
1.0
102
RTVSPost2010PropOp56
 70
     1
102
RTVSPost2010Prop57
140
1.0
102
RTVSPost2010PropOp57
 70
     1
102
RTVSPropertyOp0
 70
     1
102
RTVSPropertyOp1
 70
     1
102
RTVSPropertyOp2
 70
     1
102
RTVSPropertyOp3
 70
     1
102
RTVSPropertyOp4
 70
     1
102
RTVSPropertyOp5
 70
     1
102
RTVSPropertyOp6
 70
     1
102
RTVSPropertyOp7
 70
     1
102
RTVSPropertyOp8
 70
     1
102
RTVSPropertyOp9
 70
     1
102
RTVSPropertyOp10
 70
     1
102
RTVSPropertyOp11
 70
     1
102
RTVSPropertyOp12
 70
     1
102
RTVSPropertyOp13
 70
     1
102
RTVSPropertyOp14
 70
     1
102
RTVSPropertyOp15
 70
     1
102
RTVSPropertyOp16
 70
     1
102
RTVSPropertyOp17
 70
     1
102
RTVSPropertyOp18
 70
     1
102
RTVSPropertyOp19
 70
     1
102
RTVSPropertyOp20
 70
     1
102
RTVSPropertyOp21
 70
     1
102
RTVSPropertyOp22
 70
     1
102
RTVSPropertyOp23
 70
     1
102
RTVSPropertyOp24
 70
     1
102
RTVSPropertyOp25
 70
     1
102
RTVSPropertyOp26
 70
     1
102
RTVSPropertyOp27
 70
     1
102
RTVSPropertyOp28
 70
     1
102
RTVSPropertyOp29
 70
     1
102
RTVSPropertyOp30
 70
     1
102
RTVSPropertyOp31
 70
     1
102
RTVSPropertyOp32
 70
     1
102
RTVSPropertyOp33
 70
     1
102
RTVSPropertyOp34
 70
     1
102
RTVSPropertyOp35
 70
     1
102
RTVSPropertyOp36
 70
     1
102
RTVSPropertyOp37
 70
     1
102
RTVSPropertyOp38
 70
     1
102
RTVSPropertyOp39
 70
     1
102
RTVSPropertyOp40
 70
     1
102
RTVSPropertyOp41
 70
     1
102
RTVSPropertyOp42
 70
     1
102
RTVSPropertyOp43
 70
     1
102
RTVSPropertyOp44
 70
     1
102
RTVSPropertyOp45
 70
     1
102
RTVSPropertyOp46
 70
     1
102
RTVSPropertyOp47
 70
     1
102
RTVSPropertyOp48
 70
     1
102
RTVSPropertyOp49
 70
     1
102
RTVSPropertyOp50
 70
     1
102
RTVSPropertyOp51
 70
     0
102
RTVSPropertyOp52
 70
     0
102
RTVSPropertyOp53
 70
     1
102
RTVSPropertyOp54
 70
     1
102
RTVSPropertyOp55
 70
     1
102
RTVSPropertyOp56
 70
     1
102
RTVSPropertyOp57
 70
     1
102
RTVSPropertyOp58
 70
     1
102
RTVSPropertyOp59
 70
     1
102
RTVSPropertyOp60
 70
     1
102
RTVSPropertyOp61
 70
     1
102
RTVSPropertyOp62
 70
     1
  0
ENDSEC
  0
EOF
