  0
SECTION
  2
HEADER
  9
$ACADVER
  1
AC1015
  9
$ACADMAINTVER
 70
    18
  9
$DWGCODEPAGE
  3
ANSI_1252
  9
$INSBASE
 10
0.0
 20
0.0
 30
0.0
  9
$EXTMIN
 10
-7.4468984448431
 20
-112.8297266126956
 30
-0.0015258207003583
  9
$EXTMAX
 10
21.42425588497929
 20
0.0135959268239958
 30
0.0000000349246037
  9
$LIMMIN
 10
0.0
 20
0.0
  9
$LIMMAX
 10
420.0
 20
297.0
  9
$ORTHOMODE
 70
     0
  9
$REGENMODE
 70
     1
  9
$FILLMODE
 70
     1
  9
$QTEXTMODE
 70
     0
  9
$MIRRTEXT
 70
     0
  9
$LTSCALE
 40
1.0
  9
$ATTMODE
 70
     1
  9
$TEXTSIZE
 40
2.5
  9
$TRACEWID
 40
1.0
  9
$TEXTSTYLE
  7
Standard
  9
$CLAYER
  8
0
  9
$CELTYPE
  6
ByLayer
  9
$CECOLOR
 62
   256
  9
$CELTSCALE
 40
1.0
  9
$DISPSILH
 70
     0
  9
$DIMSCALE
 40
1.0
  9
$DIMASZ
 40
2.5
  9
$DIMEXO
 40
0.625
  9
$DIMDLI
 40
3.75
  9
$DIMRND
 40
0.0
  9
$DIMDLE
 40
0.0
  9
$DIMEXE
 40
1.25
  9
$DIMTP
 40
0.0
  9
$DIMTM
 40
0.0
  9
$DIMTXT
 40
2.5
  9
$DIMCEN
 40
2.5
  9
$DIMTSZ
 40
0.0
  9
$DIMTOL
 70
     0
  9
$DIMLIM
 70
     0
  9
$DIMTIH
 70
     0
  9
$DIMTOH
 70
     0
  9
$DIMSE1
 70
     0
  9
$DIMSE2
 70
     0
  9
$DIMTAD
 70
     1
  9
$DIMZIN
 70
     8
  9
$DIMBLK
  1

  9
$DIMASO
 70
     1
  9
$DIMSHO
 70
     1
  9
$DIMPOST
  1

  9
$DIMAPOST
  1

  9
$DIMALT
 70
     0
  9
$DIMALTD
 70
     3
  9
$DIMALTF
 40
0.03937007874016
  9
$DIMLFAC
 40
1.0
  9
$DIMTOFL
 70
     1
  9
$DIMTVP
 40
0.0
  9
$DIMTIX
 70
     0
  9
$DIMSOXD
 70
     0
  9
$DIMSAH
 70
     0
  9
$DIMBLK1
  1

  9
$DIMBLK2
  1

  9
$DIMSTYLE
  2
ISO-25
  9
$DIMCLRD
 70
     0
  9
$DIMCLRE
 70
     0
  9
$DIMCLRT
 70
     0
  9
$DIMTFAC
 40
1.0
  9
$DIMGAP
 40
0.625
  9
$DIMJUST
 70
     0
  9
$DIMSD1
 70
     0
  9
$DIMSD2
 70
     0
  9
$DIMTOLJ
 70
     0
  9
$DIMTZIN
 70
     8
  9
$DIMALTZ
 70
     0
  9
$DIMALTTZ
 70
     0
  9
$DIMUPT
 70
     0
  9
$DIMDEC
 70
     2
  9
$DIMTDEC
 70
     2
  9
$DIMALTU
 70
     2
  9
$DIMALTTD
 70
     3
  9
$DIMTXSTY
  7
Standard
  9
$DIMAUNIT
 70
     0
  9
$DIMADEC
 70
     0
  9
$DIMALTRND
 40
0.0
  9
$DIMAZIN
 70
     0
  9
$DIMDSEP
 70
    44
  9
$DIMATFIT
 70
     3
  9
$DIMFRAC
 70
     0
  9
$DIMLDRBLK
  1

  9
$DIMLUNIT
 70
     2
  9
$DIMLWD
 70
    -2
  9
$DIMLWE
 70
    -2
  9
$DIMTMOVE
 70
     0
  9
$LUNITS
 70
     2
  9
$LUPREC
 70
     4
  9
$SKETCHINC
 40
1.0
  9
$FILLETRAD
 40
0.0
  9
$AUNITS
 70
     0
  9
$AUPREC
 70
     0
  9
$MENU
  1
.
  9
$ELEVATION
 40
0.0
  9
$PELEVATION
 40
0.0
  9
$THICKNESS
 40
0.0
  9
$LIMCHECK
 70
     0
  9
$CHAMFERA
 40
0.0
  9
$CHAMFERB
 40
0.0
  9
$CHAMFERC
 40
0.0
  9
$CHAMFERD
 40
0.0
  9
$SKPOLY
 70
     0
  9
$TDCREATE
 40
2460476.646099537
  9
$TDUCREATE
 40
2460476.354432870
  9
$TDUPDATE
 40
2460476.692245370
  9
$TDUUPDATE
 40
2460476.400578704
  9
$TDINDWG
 40
0.0018287037
  9
$TDUSRTIMER
 40
0.0018287037
  9
$USRTIMER
 70
     1
  9
$ANGBASE
 50
0.0
  9
$ANGDIR
 70
     0
  9
$PDMODE
 70
     0
  9
$PDSIZE
 40
0.0
  9
$PLINEWID
 40
0.0
  9
$SPLFRAME
 70
     0
  9
$SPLINETYPE
 70
     6
  9
$SPLINESEGS
 70
     8
  9
$HANDSEED
  5
53E8
  9
$SURFTAB1
 70
     6
  9
$SURFTAB2
 70
     6
  9
$SURFTYPE
 70
     6
  9
$SURFU
 70
     6
  9
$SURFV
 70
     6
  9
$UCSBASE
  2

  9
$UCSNAME
  2

  9
$UCSORG
 10
0.0
 20
0.0
 30
0.0
  9
$UCSXDIR
 10
1.0
 20
0.0
 30
0.0
  9
$UCSYDIR
 10
0.0
 20
1.0
 30
0.0
  9
$UCSORTHOREF
  2

  9
$UCSORTHOVIEW
 70
     0
  9
$UCSORGTOP
 10
0.0
 20
0.0
 30
0.0
  9
$UCSORGBOTTOM
 10
0.0
 20
0.0
 30
0.0
  9
$UCSORGLEFT
 10
0.0
 20
0.0
 30
0.0
  9
$UCSORGRIGHT
 10
0.0
 20
0.0
 30
0.0
  9
$UCSORGFRONT
 10
0.0
 20
0.0
 30
0.0
  9
$UCSORGBACK
 10
0.0
 20
0.0
 30
0.0
  9
$PUCSBASE
  2

  9
$PUCSNAME
  2

  9
$PUCSORG
 10
0.0
 20
0.0
 30
0.0
  9
$PUCSXDIR
 10
1.0
 20
0.0
 30
0.0
  9
$PUCSYDIR
 10
0.0
 20
1.0
 30
0.0
  9
$PUCSORTHOREF
  2

  9
$PUCSORTHOVIEW
 70
     0
  9
$PUCSORGTOP
 10
0.0
 20
0.0
 30
0.0
  9
$PUCSORGBOTTOM
 10
0.0
 20
0.0
 30
0.0
  9
$PUCSORGLEFT
 10
0.0
 20
0.0
 30
0.0
  9
$PUCSORGRIGHT
 10
0.0
 20
0.0
 30
0.0
  9
$PUCSORGFRONT
 10
0.0
 20
0.0
 30
0.0
  9
$PUCSORGBACK
 10
0.0
 20
0.0
 30
0.0
  9
$USERI1
 70
     0
  9
$USERI2
 70
     0
  9
$USERI3
 70
     0
  9
$USERI4
 70
     0
  9
$USERI5
 70
     0
  9
$USERR1
 40
0.0
  9
$USERR2
 40
0.0
  9
$USERR3
 40
0.0
  9
$USERR4
 40
0.0
  9
$USERR5
 40
0.0
  9
$WORLDVIEW
 70
     1
  9
$SHADEDGE
 70
     3
  9
$SHADEDIF
 70
    70
  9
$TILEMODE
 70
     1
  9
$MAXACTVP
 70
    48
  9
$PINSBASE
 10
0.0
 20
0.0
 30
0.0
  9
$PLIMCHECK
 70
     0
  9
$PEXTMIN
 10
0.0
 20
0.0
 30
0.0
  9
$PEXTMAX
 10
0.0
 20
0.0
 30
0.0
  9
$PLIMMIN
 10
0.0
 20
0.0
  9
$PLIMMAX
 10
12.0
 20
9.0
  9
$UNITMODE
 70
     0
  9
$VISRETAIN
 70
     1
  9
$PLINEGEN
 70
     0
  9
$PSLTSCALE
 70
     1
  9
$TREEDEPTH
 70
  3020
  9
$CMLSTYLE
  2
Standard
  9
$CMLJUST
 70
     0
  9
$CMLSCALE
 40
20.0
  9
$PROXYGRAPHICS
 70
     1
  9
$MEASUREMENT
 70
     1
  9
$CELWEIGHT
370
    -1
  9
$ENDCAPS
280
     0
  9
$JOINSTYLE
280
     0
  9
$LWDISPLAY
290
     0
  9
$INSUNITS
 70
     4
  9
$HYPERLINKBASE
  1

  9
$STYLESHEET
  1

  9
$XEDIT
290
     1
  9
$CEPSNTYPE
380
     0
  9
$PSTYLEMODE
290
     1
  9
$FINGERPRINTGUID
  2
{F9DBAE76-D248-2544-A6C6-CA8F37DA12E5}
  9
$VERSIONGUID
  2
{6188902F-A2A6-1140-B757-879A0ABEDF41}
  9
$EXTNAMES
290
     1
  9
$PSVPSCALE
 40
0.0
  9
$OLESTARTUP
290
     0
  0
ENDSEC
  0
SECTION
  2
CLASSES
  0
CLASS
  1
ACDBDICTIONARYWDFLT
  2
AcDbDictionaryWithDefault
  3
ObjectDBX Classes
 90
        0
280
     0
281
     0
  0
CLASS
  1
ACDBPLACEHOLDER
  2
AcDbPlaceHolder
  3
ObjectDBX Classes
 90
        0
280
     0
281
     0
  0
CLASS
  1
LAYOUT
  2
AcDbLayout
  3
ObjectDBX Classes
 90
        0
280
     0
281
     0
  0
CLASS
  1
DICTIONARYVAR
  2
AcDbDictionaryVar
  3
ObjectDBX Classes
 90
        0
280
     0
281
     0
  0
CLASS
  1
TABLESTYLE
  2
AcDbTableStyle
  3
ObjectDBX Classes
 90
     4095
280
     0
281
     0
  0
CLASS
  1
MATERIAL
  2
AcDbMaterial
  3
ObjectDBX Classes
 90
     1153
280
     0
281
     0
  0
CLASS
  1
VISUALSTYLE
  2
AcDbVisualStyle
  3
ObjectDBX Classes
 90
     4095
280
     0
281
     0
  0
CLASS
  1
SCALE
  2
AcDbScale
  3
ObjectDBX Classes
 90
     1153
280
     0
281
     0
  0
CLASS
  1
MLEADERSTYLE
  2
AcDbMLeaderStyle
  3
ACDB_MLEADERSTYLE_CLASS
 90
     4095
280
     0
281
     0
  0
CLASS
  1
CELLSTYLEMAP
  2
AcDbCellStyleMap
  3
ObjectDBX Classes
 90
     1152
280
     0
281
     0
  0
CLASS
  1
EXACXREFPANELOBJECT
  2
ExAcXREFPanelObject
  3
EXAC_ESW
 90
    33793
280
     0
281
     0
  0
CLASS
  1
NPOCOLLECTION
  2
AcDbImpNonPersistentObjectsCollection
  3
ObjectDBX Classes
 90
    33921
280
     0
281
     0
  0
CLASS
  1
LAYER_INDEX
  2
AcDbLayerIndex
  3
ObjectDBX Classes
 90
    32768
280
     0
281
     0
  0
CLASS
  1
SPATIAL_INDEX
  2
AcDbSpatialIndex
  3
ObjectDBX Classes
 90
    32768
280
     0
281
     0
  0
CLASS
  1
IDBUFFER
  2
AcDbIdBuffer
  3
ObjectDBX Classes
 90
    32768
280
     0
281
     0
  0
CLASS
  1
ACDBSECTIONVIEWSTYLE
  2
AcDbSectionViewStyle
  3
ObjectDBX Classes
 90
     1025
280
     0
281
     0
  0
CLASS
  1
ACDBDETAILVIEWSTYLE
  2
AcDbDetailViewStyle
  3
ObjectDBX Classes
 90
     1025
280
     0
281
     0
  0
CLASS
  1
XRECORD
  2
AcDbXrecord
  3
ObjectDBX Classes
 90
        0
280
     0
281
     0
  0
ENDSEC
  0
SECTION
  2
TABLES
  0
TABLE
  2
VPORT
  5
8
102
{ACAD_XDICTIONARY
360
52F6
102
}
330
0
100
AcDbSymbolTable
 70
     1
  0
VPORT
  5
EA
330
8
100
AcDbSymbolTableRecord
100
AcDbViewportTableRecord
  2
*Active
 70
     0
 10
0.0
 20
0.0
 11
1.0
 21
1.0
 12
6.988678720068094
 22
-56.40806534293583
 13
0.0
 23
0.0
 14
10.0
 24
10.0
 15
10.0
 25
10.0
 16
0.0
 26
0.0
 36
1.0
 17
0.0
 27
0.0
 37
0.0
 40
119.9986472847056
 41
0.9846153846153846
 42
50.0
 43
0.0
 44
0.0
 50
0.0
 51
0.0
 71
     0
 72
  1000
 73
     1
 74
     3
 75
     0
 76
     1
 77
     0
 78
     0
281
     0
 65
     1
110
0.0
120
0.0
130
0.0
111
1.0
121
0.0
131
0.0
112
0.0
122
1.0
132
0.0
 79
     0
146
0.0
1001
ACAD_NAV_VCDISPLAY
1070
     3
  0
ENDTAB
  0
TABLE
  2
LTYPE
  5
5
330
0
100
AcDbSymbolTable
 70
     1
  0
LTYPE
  5
14
330
5
100
AcDbSymbolTableRecord
100
AcDbLinetypeTableRecord
  2
ByBlock
 70
     0
  3

 72
    65
 73
     0
 40
0.0
  0
LTYPE
  5
15
330
5
100
AcDbSymbolTableRecord
100
AcDbLinetypeTableRecord
  2
ByLayer
 70
     0
  3

 72
    65
 73
     0
 40
0.0
  0
LTYPE
  5
16
330
5
100
AcDbSymbolTableRecord
100
AcDbLinetypeTableRecord
  2
Continuous
 70
     0
  3
Solid line
 72
    65
 73
     0
 40
0.0
  0
ENDTAB
  0
TABLE
  2
LAYER
  5
2
102
{ACAD_XDICTIONARY
360
1FF
102
}
330
0
100
AcDbSymbolTable
 70
     1
  0
LAYER
  5
10
102
{ACAD_XDICTIONARY
360
13C
102
}
330
2
100
AcDbSymbolTableRecord
100
AcDbLayerTableRecord
  2
0
 70
     0
 62
     7
  6
Continuous
370
    -3
390
F
  0
ENDTAB
  0
TABLE
  2
STYLE
  5
3
330
0
100
AcDbSymbolTable
 70
     1
  0
STYLE
  5
11
330
3
100
AcDbSymbolTableRecord
100
AcDbTextStyleTableRecord
  2
Standard
 70
     0
 40
0.0
 41
1.0
 50
0.0
 71
     0
 42
2.5
  3
arial_1.ttf
  4

1001
ACAD
1000
Arial
1071
       34
  0
ENDTAB
  0
TABLE
  2
VIEW
  5
6
330
0
100
AcDbSymbolTable
 70
     0
  0
ENDTAB
  0
TABLE
  2
UCS
  5
7
330
0
100
AcDbSymbolTable
 70
     0
  0
ENDTAB
  0
TABLE
  2
APPID
  5
9
330
0
100
AcDbSymbolTable
 70
     8
  0
APPID
  5
12
330
9
100
AcDbSymbolTableRecord
100
AcDbRegAppTableRecord
  2
ACAD
 70
     0
  0
APPID
  5
9E
330
9
100
AcDbSymbolTableRecord
100
AcDbRegAppTableRecord
  2
ACAD_PSEXT
 70
     0
  0
APPID
  5
133
330
9
100
AcDbSymbolTableRecord
100
AcDbRegAppTableRecord
  2
AcadAnnoPO
 70
     0
  0
APPID
  5
134
330
9
100
AcDbSymbolTableRecord
100
AcDbRegAppTableRecord
  2
AcadAnnotative
 70
     0
  0
APPID
  5
135
330
9
100
AcDbSymbolTableRecord
100
AcDbRegAppTableRecord
  2
ACAD_DSTYLE_DIMJAG
 70
     0
  0
APPID
  5
136
330
9
100
AcDbSymbolTableRecord
100
AcDbRegAppTableRecord
  2
ACAD_DSTYLE_DIMTALN
 70
     0
  0
APPID
  5
165
330
9
100
AcDbSymbolTableRecord
100
AcDbRegAppTableRecord
  2
ACAD_MLEADERVER
 70
     0
  0
APPID
  5
217
330
9
100
AcDbSymbolTableRecord
100
AcDbRegAppTableRecord
  2
ACAD_NAV_VCDISPLAY
 70
     0
  0
ENDTAB
  0
TABLE
  2
DIMSTYLE
  5
A
330
0
100
AcDbSymbolTable
 70
     1
100
AcDbDimStyleTable
 71
     0
  0
DIMSTYLE
105
27
330
A
100
AcDbSymbolTableRecord
100
AcDbDimStyleTableRecord
  2
ISO-25
 70
     0
 41
2.5
 42
0.625
 43
3.75
 44
1.25
 73
     0
 74
     0
 77
     1
 78
     8
140
2.5
141
2.5
143
0.03937007874016
147
0.625
171
     3
172
     1
271
     2
272
     2
274
     3
278
    44
283
     0
284
     8
340
11
  0
ENDTAB
  0
TABLE
  2
BLOCK_RECORD
  5
1
330
0
100
AcDbSymbolTable
 70
     4
  0
BLOCK_RECORD
  5
1F
102
{ACAD_XDICTIONARY
360
1CE
102
}
330
1
100
AcDbSymbolTableRecord
100
AcDbBlockTableRecord
  2
*Model_Space
340
22
  0
BLOCK_RECORD
  5
D2
102
{ACAD_XDICTIONARY
360
52A9
102
}
330
1
100
AcDbSymbolTableRecord
100
AcDbBlockTableRecord
  2
*Paper_Space
340
D3
  0
BLOCK_RECORD
  5
D6
102
{ACAD_XDICTIONARY
360
52AB
102
}
330
1
100
AcDbSymbolTableRecord
100
AcDbBlockTableRecord
  2
*Paper_Space0
340
D7
  0
BLOCK_RECORD
  5
4FD6
330
1
100
AcDbSymbolTableRecord
100
AcDbBlockTableRecord
  2
DSIX442X55T-20-Front
340
0
102
{BLKREFS
331
52A2
102
}
  0
BLOCK_RECORD
  5
513C
330
1
100
AcDbSymbolTableRecord
100
AcDbBlockTableRecord
  2
DSIX442X55T-20-Top
340
0
102
{BLKREFS
331
52A3
102
}
  0
BLOCK_RECORD
  5
51E9
330
1
100
AcDbSymbolTableRecord
100
AcDbBlockTableRecord
  2
DSIX442X55T-20-ISO
340
0
102
{BLKREFS
331
52A4
102
}
  0
ENDTAB
  0
ENDSEC
  0
SECTION
  2
BLOCKS
  0
BLOCK
  5
20
330
1F
100
AcDbEntity
  8
0
100
AcDbBlockBegin
  2
*Model_Space
 70
     0
 10
0.0
 20
0.0
 30
0.0
  3
*Model_Space
  1

  0
ENDBLK
  5
21
330
1F
100
AcDbEntity
  8
0
100
AcDbBlockEnd
  0
BLOCK
  5
D4
330
D2
100
AcDbEntity
 67
     1
  8
0
100
AcDbBlockBegin
  2
*Paper_Space
 70
     0
 10
0.0
 20
0.0
 30
0.0
  3
*Paper_Space
  1

  0
ENDBLK
  5
D5
330
D2
100
AcDbEntity
 67
     1
  8
0
100
AcDbBlockEnd
  0
BLOCK
  5
D8
330
D6
100
AcDbEntity
 67
     1
  8
0
100
AcDbBlockBegin
  2
*Paper_Space0
 70
     0
 10
0.0
 20
0.0
 30
0.0
  3
*Paper_Space0
  1

  0
ENDBLK
  5
D9
330
D6
100
AcDbEntity
 67
     1
  8
0
100
AcDbBlockEnd
  0
BLOCK
  5
4FD7
330
4FD6
100
AcDbEntity
  8
0
100
AcDbBlockBegin
  2
DSIX442X55T-20-Front
 70
     0
 10
0.0
 20
0.0
 30
0.0
  3
DSIX442X55T-20-Front
  1

  0
LINE
  5
4FD9
330
4FD6
100
AcDbEntity
  8
0
100
AcDbLine
 10
3.5
 20
0.0
 30
0.0
 11
-3.5
 21
0.0
 31
0.0
  0
LINE
  5
4FDA
330
4FD6
100
AcDbEntity
  8
0
100
AcDbLine
 10
1.299999999999998
 20
-27.5
 30
0.0
 11
-1.299999999999998
 21
-27.5
 31
0.0
  0
LINE
  5
4FDB
330
4FD6
100
AcDbEntity
  8
0
100
AcDbLine
 10
1.524999999999998
 20
-27.275
 30
0.0
 11
-1.524999999999998
 21
-27.275
 31
0.0
  0
LINE
  5
4FDC
330
4FD6
100
AcDbEntity
  8
0
100
AcDbLine
 10
1.484292760879741
 20
-3.854699269900723
 30
0.0
 11
0.3500000000000002
 21
-3.854699269900722
 31
0.0
  0
LINE
  5
4FDD
330
4FD6
100
AcDbEntity
  8
0
100
AcDbLine
 10
-0.3499999999999999
 20
-3.854699269900722
 30
0.0
 11
-1.484292760879741
 21
-3.854699269900723
 31
0.0
  0
LINE
  5
4FDE
330
4FD6
100
AcDbEntity
  8
0
100
AcDbLine
 10
3.482456029873171
 20
-0.5999999999999999
 30
0.0
 11
0.3500000000000009
 21
-0.5999999999999992
 31
0.0
  0
LINE
  5
4FDF
330
4FD6
100
AcDbEntity
  8
0
100
AcDbLine
 10
-0.3499999999999988
 20
-0.5999999999999992
 30
0.0
 11
-3.48245602987317
 21
-0.5999999999999999
 31
0.0
  0
LINE
  5
4FE0
330
4FD6
100
AcDbEntity
  8
0
100
AcDbLine
 10
1.299999999999996
 20
-48.61029585960745
 30
0.0
 11
-0.4203484811052749
 21
-48.61029585960745
 31
0.0
  0
LINE
  5
4FE1
330
4FD6
100
AcDbEntity
  8
0
100
AcDbLine
 10
-1.299999999999998
 20
-27.5
 30
0.0
 11
-1.524999999999998
 21
-27.275
 31
0.0
  0
LINE
  5
4FE2
330
4FD6
100
AcDbEntity
  8
0
100
AcDbLine
 10
1.299999999999998
 20
-27.5
 30
0.0
 11
1.524999999999998
 21
-27.275
 31
0.0
  0
LINE
  5
4FE3
330
4FD6
100
AcDbEntity
  8
0
100
AcDbLine
 10
-1.525
 20
-27.275
 30
0.0
 11
-1.525
 21
-4.48117720585369
 31
0.0
  0
LINE
  5
4FE4
330
4FD6
100
AcDbEntity
  8
0
100
AcDbLine
 10
1.525
 20
-27.275
 30
0.0
 11
1.525
 21
-4.48117720585369
 31
0.0
  0
LINE
  5
4FE5
330
4FD6
100
AcDbEntity
  8
0
100
AcDbLine
 10
-3.5
 20
-1.226477935952966
 30
0.0
 11
-3.5
 21
0.0
 31
0.0
  0
LINE
  5
4FE6
330
4FD6
100
AcDbEntity
  8
0
100
AcDbLine
 10
3.5
 20
-1.226477935952966
 30
0.0
 11
3.5
 21
0.0
 31
0.0
  0
LINE
  5
4FE7
330
4FD6
100
AcDbEntity
  8
0
100
AcDbLine
 10
0.0
 20
-55.0
 30
0.0
 11
-0.5423404485527847
 21
-52.33431153106146
 31
0.0
  0
LINE
  5
4FE8
330
4FD6
100
AcDbEntity
  8
0
100
AcDbLine
 10
-0.7006633613804027
 20
-51.55612955289712
 30
0.0
 11
-1.173164113497634
 21
-49.23371415894168
 31
0.0
  0
LINE
  5
4FE9
330
4FD6
100
AcDbEntity
  8
0
100
AcDbLine
 10
1.289133158619963
 20
-48.66370809142205
 30
0.0
 11
1.299999999999996
 21
-48.61029585960745
 31
0.0
  0
LINE
  5
4FEA
330
4FD6
100
AcDbEntity
  8
0
100
AcDbLine
 10
1.299999999999997
 20
-48.61029585960745
 30
0.0
 11
1.299999999999997
 21
-47.88530322406425
 31
0.0
  0
LINE
  5
4FEB
330
4FD6
100
AcDbEntity
  8
0
100
AcDbLine
 10
-1.299999999999997
 20
-48.54098812590528
 30
0.0
 11
-1.299999999999997
 21
-46.29717607495915
 31
0.0
  0
LINE
  5
4FEC
330
4FD6
100
AcDbEntity
  8
0
100
AcDbLine
 10
-1.299999999999997
 20
-45.23133458071905
 30
0.0
 11
-1.299999999999997
 21
-43.19717607495914
 31
0.0
  0
LINE
  5
4FED
330
4FD6
100
AcDbEntity
  8
0
100
AcDbLine
 10
-1.299999999999997
 20
-42.13133458071907
 30
0.0
 11
-1.299999999999997
 21
-40.09717607495915
 31
0.0
  0
LINE
  5
4FEE
330
4FD6
100
AcDbEntity
  8
0
100
AcDbLine
 10
-1.299999999999997
 20
-39.03133458071906
 30
0.0
 11
-1.299999999999997
 21
-36.99717607495915
 31
0.0
  0
LINE
  5
4FEF
330
4FD6
100
AcDbEntity
  8
0
100
AcDbLine
 10
-1.299999999999997
 20
-35.93133458071906
 30
0.0
 11
-1.299999999999997
 21
-33.89717607495915
 31
0.0
  0
LINE
  5
4FF0
330
4FD6
100
AcDbEntity
  8
0
100
AcDbLine
 10
-1.299999999999997
 20
-32.83133458071905
 30
0.0
 11
-1.299999999999997
 21
-30.79717607495915
 31
0.0
  0
LINE
  5
4FF1
330
4FD6
100
AcDbEntity
  8
0
100
AcDbLine
 10
-1.299999999999997
 20
-29.73133458071906
 30
0.0
 11
-1.299999999999997
 21
-27.5
 31
0.0
  0
LINE
  5
4FF2
330
4FD6
100
AcDbEntity
  8
0
100
AcDbLine
 10
1.299999999999997
 20
-47.00231252733325
 30
0.0
 11
1.299999999999997
 21
-44.88925713849583
 31
0.0
  0
LINE
  5
4FF3
330
4FD6
100
AcDbEntity
  8
0
100
AcDbLine
 10
1.299999999999997
 20
-43.82341564425574
 30
0.0
 11
1.299999999999997
 21
-41.78925713849583
 31
0.0
  0
LINE
  5
4FF4
330
4FD6
100
AcDbEntity
  8
0
100
AcDbLine
 10
1.299999999999997
 20
-40.72341564425574
 30
0.0
 11
1.299999999999997
 21
-38.68925713849584
 31
0.0
  0
LINE
  5
4FF5
330
4FD6
100
AcDbEntity
  8
0
100
AcDbLine
 10
1.299999999999997
 20
-37.62341564425575
 30
0.0
 11
1.299999999999997
 21
-35.58925713849585
 31
0.0
  0
LINE
  5
4FF6
330
4FD6
100
AcDbEntity
  8
0
100
AcDbLine
 10
1.299999999999997
 20
-34.52341564425574
 30
0.0
 11
1.299999999999997
 21
-32.48925713849584
 31
0.0
  0
LINE
  5
4FF7
330
4FD6
100
AcDbEntity
  8
0
100
AcDbLine
 10
1.299999999999997
 20
-31.42341564425575
 30
0.0
 11
1.299999999999997
 21
-29.28663506701902
 31
0.0
  0
LINE
  5
4FF8
330
4FD6
100
AcDbEntity
  8
0
100
AcDbLine
 10
1.299999999999997
 20
-28.49013085559349
 30
0.0
 11
1.299999999999997
 21
-27.5
 31
0.0
  0
SPLINE
  5
4FF9
330
4FD6
100
AcDbEntity
  8
0
100
AcDbSpline
210
0.0
220
0.0
230
1.0
 70
     8
 71
     3
 72
    17
 73
    13
 74
     0
 42
0.000000001
 43
0.0000000001
 40
1.418115877383924
 40
1.418115877383924
 40
1.418115877383924
 40
1.418115877383924
 40
2.553449081692271
 40
2.553449081692271
 40
2.553449081692271
 40
3.722726375294743
 40
3.722726375294743
 40
3.722726375294743
 40
4.890293930863474
 40
4.890293930863474
 40
4.890293930863474
 40
5.147292416328151
 40
5.147292416328151
 40
5.147292416328151
 40
5.147292416328151
 10
1.95363502156783
 20
-47.30996633007197
 30
0.0
 10
2.034863283497229
 20
-47.49668335131141
 30
0.0
 10
1.651389443046073
 20
-47.68340037255085
 30
0.0
 10
1.041869266924507
 20
-47.87011739379028
 30
0.0
 10
0.4141257117928604
 20
-48.0624168636163
 30
0.0
 10
-0.4150397531705998
 20
-48.25471633344232
 30
0.0
 10
-0.9750491491548812
 20
-48.44701580326833
 30
0.0
 10
-1.534239689450434
 20
-48.6390340893929
 30
0.0
 10
-1.796789909199278
 20
-48.83105237551745
 30
0.0
 10
-1.64813242641293
 20
-49.02307066164202
 30
0.0
 10
-1.61541076697073
 20
-49.06533666028182
 30
0.0
 10
-1.563514179433514
 20
-49.10760265892162
 30
0.0
 10
-1.496031908832279
 20
-49.14986865756142
 30
0.0
  0
SPLINE
  5
4FFA
330
4FD6
100
AcDbEntity
  8
0
100
AcDbSpline
210
0.0
220
0.0
230
1.0
 70
     8
 71
     3
 72
    12
 73
     8
 74
     0
 42
0.000000001
 43
0.0000000001
 40
0.0
 40
0.0
 40
0.0
 40
0.0
 40
0.05734520907775
 40
0.05734520907775
 40
0.1133100462992993
 40
0.1133100462992993
 40
0.166973326510059
 40
0.166973326510059
 40
0.166973326510059
 40
0.166973326510059
 10
-0.4203484811052752
 20
-48.61029585960745
 30
0.0
 10
-0.5841108069085282
 20
-48.67898573343893
 30
0.0
 10
-0.7311299579271702
 20
-48.74783930990297
 30
0.0
 10
-0.9691352766340862
 20
-48.88740810524467
 30
0.0
 10
-1.058743818740347
 20
-48.95652498326365
 30
0.0
 10
-1.167097919766083
 20
-49.09549171722563
 30
0.0
 10
-1.187406658447327
 20
-49.16371179133263
 30
0.0
 10
-1.173164134459473
 20
-49.23371410793817
 30
0.0
  0
SPLINE
  5
4FFB
330
4FD6
100
AcDbEntity
  8
0
100
AcDbSpline
210
0.0
220
0.0
230
1.0
 70
     8
 71
     3
 72
    14
 73
    10
 74
     0
 42
0.000000001
 43
0.0000000001
 40
0.2899960579116628
 40
0.2899960579116628
 40
0.2899960579116628
 40
0.2899960579116628
 40
0.3402338994842797
 40
0.3402338994842797
 40
0.3969395493983263
 40
0.3969395493983263
 40
0.4375917529565406
 40
0.4375917529565406
 40
0.4782439565147547
 40
0.4782439565147547
 40
0.4782439565147547
 40
0.4782439565147547
 10
1.119437600218132
 20
-48.00463756280594
 30
0.0
 10
1.039022730298471
 20
-48.05855453782853
 30
0.0
 10
0.9343296439601095
 20
-48.1120834600594
 30
0.0
 10
0.6705000559190775
 20
-48.22710301575987
 30
0.0
 10
0.5090783354824846
 20
-48.2874503954185
 30
0.0
 10
0.212362343783083
 20
-48.39216043335219
 30
0.0
 10
0.0842368340112536
 20
-48.43564493529263
 30
0.0
 10
-0.1721364312296009
 20
-48.52308921687555
 30
0.0
 10
-0.2989785068892691
 20
-48.56657371881599
 30
0.0
 10
-0.4203484811052841
 20
-48.61029585960745
 30
0.0
  0
SPLINE
  5
4FFC
330
4FD6
100
AcDbEntity
  8
0
100
AcDbSpline
210
0.0
220
0.0
230
1.0
 70
     8
 71
     3
 72
    20
 73
    16
 74
     0
 42
0.000000001
 43
0.0000000001
 40
0.0626754246579694
 40
0.0626754246579694
 40
0.0626754246579694
 40
0.0626754246579694
 40
0.1193926424992094
 40
0.1193926424992094
 40
0.179088963748814
 40
0.179088963748814
 40
0.2387852849984187
 40
0.2387852849984187
 40
0.2984816062480233
 40
0.2984816062480233
 40
0.358177927497628
 40
0.358177927497628
 40
0.4178742487472328
 40
0.4178742487472328
 40
0.4183432755932942
 40
0.4183432755932942
 40
0.4183432755932942
 40
0.4183432755932942
 10
-1.052856771075822
 20
-48.36935550582233
 30
0.0
 10
-0.9506526072947883
 20
-48.29649571070408
 30
0.0
 10
-0.8210535222017366
 20
-48.22432521245758
 30
0.0
 10
-0.5145429316043594
 20
-48.07462175524995
 30
0.0
 10
-0.3390401441224519
 20
-47.9987027940303
 30
0.0
 10
0.0254464452190953
 20
-47.84516832126302
 30
0.0
 10
0.2103300201744542
 20
-47.76924936004337
 30
0.0
 10
0.5609691136511619
 20
-47.61571488727608
 30
0.0
 10
0.7227801802041598
 20
-47.53979592605644
 30
0.0
 10
0.9980228043662558
 20
-47.38626145328916
 30
0.0
 10
1.108358069146493
 20
-47.31034249206952
 30
0.0
 10
1.259889870911373
 20
-47.15680801930223
 30
0.0
 10
1.299381777907919
 20
-47.08088905808259
 30
0.0
 10
1.299997600262563
 20
-47.0035186707173
 30
0.0
 10
1.30000000008523
 20
-47.00291557197245
 30
0.0
 10
1.30000000023021
 20
-47.00231252464475
 30
0.0
  0
SPLINE
  5
4FFD
330
4FD6
100
AcDbEntity
  8
0
100
AcDbSpline
210
0.0
220
0.0
230
1.0
 70
     8
 71
     3
 72
     8
 73
     4
 74
     0
 42
0.000000001
 43
0.0000000001
 40
0.0
 40
0.0
 40
0.0
 40
0.0
 40
0.0802929274697671
 40
0.0802929274697671
 40
0.0802929274697671
 40
0.0802929274697671
 10
1.793824782646967
 20
-47.57201461889253
 30
0.0
 10
1.566675021352908
 20
-47.71314617460503
 30
0.0
 10
1.340619286434304
 20
-47.85634045752747
 30
0.0
 10
1.119437603807005
 20
-48.00463732967251
 30
0.0
  0
SPLINE
  5
4FFE
330
4FD6
100
AcDbEntity
  8
0
100
AcDbSpline
210
0.0
220
0.0
230
1.0
 70
     8
 71
     3
 72
     8
 73
     4
 74
     0
 42
0.000000001
 43
0.0000000001
 40
0.0278925341386827
 40
0.0278925341386827
 40
0.0278925341386827
 40
0.0278925341386827
 40
0.0703639542136622
 40
0.0703639542136622
 40
0.0703639542136622
 40
0.0703639542136622
 10
-1.143234450599749
 20
-49.38082315197181
 30
0.0
 10
-1.260456080105816
 20
-49.30253614871983
 30
0.0
 10
-1.379185231982642
 20
-49.22576365002322
 30
0.0
 10
-1.498402259805666
 20
-49.14986865756142
 30
0.0
  0
SPLINE
  5
4FFF
330
4FD6
100
AcDbEntity
  8
0
100
AcDbSpline
210
0.0
220
0.0
230
1.0
 70
     8
 71
     3
 72
     8
 73
     4
 74
     0
 42
0.000000001
 43
0.0000000001
 40
0.0
 40
0.0
 40
0.0
 40
0.0
 40
0.0572732349777267
 40
0.0572732349777267
 40
0.0572732349777267
 40
0.0572732349777267
 10
-1.523120085437654
 20
-48.68978367494992
 30
0.0
 10
-1.364129948584916
 20
-48.5853220655758
 30
0.0
 10
-1.206568935181746
 20
-48.47893316738316
 30
0.0
 10
-1.052856756633959
 20
-48.3693555850254
 30
0.0
  0
SPLINE
  5
5000
330
4FD6
100
AcDbEntity
  8
0
100
AcDbSpline
210
0.0
220
0.0
230
1.0
 70
     8
 71
     3
 72
    10
 73
     6
 74
     0
 42
0.000000001
 43
0.0000000001
 40
-0.1044680806805205
 40
-0.1044680806805205
 40
-0.1044680806805205
 40
-0.1044680806805205
 40
-0.054004918507628
 40
-0.054004918507628
 40
-0.0245838895216524
 40
-0.0245838895216524
 40
-0.0245838895216524
 40
-0.0245838895216524
 10
1.95363502156783
 20
-47.30996633007197
 30
0.0
 10
1.814989907787415
 20
-47.22072552395694
 30
0.0
 10
1.674418725262592
 20
-47.12842125401354
 30
0.0
 10
1.458610173073289
 20
-46.98171159420867
 30
0.0
 10
1.378947513474755
 20
-46.92645417390473
 30
0.0
 10
1.299999856825897
 20
-46.87012478867005
 30
0.0
  0
SPLINE
  5
5001
330
4FD6
100
AcDbEntity
  8
0
100
AcDbSpline
210
0.0
220
0.0
230
1.0
 70
     8
 71
     3
 72
     8
 73
     4
 74
     0
 42
0.000000001
 43
0.0000000001
 40
2.134232733041551
 40
2.134232733041551
 40
2.134232733041551
 40
2.134232733041551
 40
2.296623994976147
 40
2.296623994976147
 40
2.296623994976147
 40
2.296623994976147
 10
1.289132919380648
 20
-48.66370816796248
 30
0.0
 10
1.177054325620077
 20
-49.21457013006314
 30
0.0
 10
1.050694547299816
 20
-49.77821415260307
 30
0.0
 10
0.9202993762258218
 20
-50.34599920224763
 30
0.0
  0
SPLINE
  5
5002
330
4FD6
100
AcDbEntity
  8
0
100
AcDbSpline
210
0.0
220
0.0
230
1.0
 70
     8
 71
     3
 72
    10
 73
     6
 74
     0
 42
0.000000001
 43
0.0000000001
 40
-0.0507675969598581
 40
-0.0507675969598581
 40
-0.0507675969598581
 40
-0.0507675969598581
 40
-0.0252324285000258
 40
-0.0252324285000258
 40
-0.0002590135614549
 40
-0.0002590135614549
 40
-0.0002590135614549
 40
-0.0002590135614549
 10
1.37766462564249
 20
-50.57044368406829
 30
0.0
 10
1.302630771245622
 20
-50.53155220996274
 30
0.0
 10
1.2249963295619
 20
-50.4919837768228
 30
0.0
 10
1.074862385103265
 20
-50.41779655325242
 30
0.0
 10
0.9962688108248853
 20
-50.38011088517177
 30
0.0
 10
0.9202993762258218
 20
-50.34599920224763
 30
0.0
  0
SPLINE
  5
5003
330
4FD6
100
AcDbEntity
  8
0
100
AcDbSpline
210
0.0
220
0.0
230
1.0
 70
     8
 71
     3
 72
    10
 73
     6
 74
     0
 42
0.000000001
 43
0.0000000001
 40
2.361564659435801
 40
2.361564659435801
 40
2.361564659435801
 40
2.361564659435801
 40
2.552974478438969
 40
2.552974478438969
 40
2.747747586946196
 40
2.747747586946196
 40
2.747747586946196
 40
2.747747586946196
 10
0.7626572028272549
 20
-51.02859530874593
 30
0.0
 10
0.6072512277353289
 20
-51.70015163531608
 30
0.0
 10
0.4520109556199236
 20
-52.372818873743
 30
0.0
 10
0.1793980994038052
 20
-53.70527072437841
 30
0.0
 10
0.0586104020621695
 20
-54.36379006392659
 30
0.0
 10
0.0
 20
-55.0
 30
0.0
  0
ELLIPSE
  5
5004
330
4FD6
100
AcDbEntity
  8
0
100
AcDbEllipse
 10
0.0
 20
-6.994299426916274
 30
0.0
 11
-0.0000000000000007
 21
-2.513122221062584
 31
0.0
210
0.0
220
0.0
230
1.0
 40
0.6068148963145963
 41
2.910020292007265
 42
3.373165015172318
  0
LINE
  5
5005
330
4FD6
100
AcDbEntity
  8
0
100
AcDbLine
 10
-1.484292760879741
 20
-3.854699269900723
 30
0.0
 11
-1.484292760879739
 21
-4.548260659749581
 31
0.0
  0
LINE
  5
5006
330
4FD6
100
AcDbEntity
  8
0
100
AcDbLine
 10
1.484292760879739
 20
-4.548260659749581
 30
0.0
 11
1.484292760879741
 21
-3.854699269900723
 31
0.0
  0
LINE
  5
5007
330
4FD6
100
AcDbEntity
  8
0
100
AcDbLine
 10
0.3500000000000011
 20
-0.5999999999999992
 30
0.0
 11
0.3500000000000011
 21
-1.255389503934208
 31
0.0
  0
LINE
  5
5008
330
4FD6
100
AcDbEntity
  8
0
100
AcDbLine
 10
0.3500000000000011
 20
-1.255389503934208
 30
0.0
 11
0.3500000000000004
 21
-4.54826065974958
 31
0.0
  0
LINE
  5
5009
330
4FD6
100
AcDbEntity
  8
0
100
AcDbLine
 10
3.48245602987317
 20
-1.255389503934208
 30
0.0
 11
3.5
 21
-1.226477935952965
 31
0.0
  0
LINE
  5
500A
330
4FD6
100
AcDbEntity
  8
0
100
AcDbLine
 10
3.48245602987317
 20
-1.255389503934209
 30
0.0
 11
1.484292760879739
 21
-4.548260659749581
 31
0.0
  0
SPLINE
  5
500B
330
4FD6
100
AcDbEntity
  8
0
100
AcDbSpline
210
0.0
220
0.0
230
1.0
 70
    12
 71
     2
 72
     6
 73
     3
 74
     0
 42
0.000000001
 43
0.0000000001
 40
0.0
 40
0.0
 40
0.0
 40
0.3819135332074239
 40
0.3819135332074239
 40
0.3819135332074239
 10
1.484292760879741
 20
-3.854699269900723
 30
0.0
 41
1.0
 10
2.090700519134482
 20
-2.882045574555263
 30
0.0
 41
1.089871223951879
 10
3.482456029873169
 20
-0.6000000000000002
 30
0.0
 41
1.0
  0
LINE
  5
500C
330
4FD6
100
AcDbEntity
  8
0
100
AcDbLine
 10
3.48245602987317
 20
-1.255389503934209
 30
0.0
 11
3.482456029873169
 21
-0.6
 31
0.0
  0
LINE
  5
500D
330
4FD6
100
AcDbEntity
  8
0
100
AcDbLine
 10
-0.3499999999999988
 20
-1.255389503934208
 30
0.0
 11
-0.3499999999999995
 21
-4.54826065974958
 31
0.0
  0
LINE
  5
500E
330
4FD6
100
AcDbEntity
  8
0
100
AcDbLine
 10
-0.3499999999999988
 20
-1.255389503934208
 30
0.0
 11
-0.349999999999999
 21
-0.5999999999999992
 31
0.0
  0
SPLINE
  5
500F
330
4FD6
100
AcDbEntity
  8
0
100
AcDbSpline
210
0.0
220
0.0
230
1.0
 70
    12
 71
     2
 72
     6
 73
     3
 74
     0
 42
0.000000001
 43
0.0000000001
 40
0.0
 40
0.0
 40
0.0
 40
0.3819135332074239
 40
0.3819135332074239
 40
0.3819135332074239
 10
-3.482456029873169
 20
-0.5999999999999999
 30
0.0
 41
1.0
 10
-2.090700519129496
 20
-2.882045574563348
 30
0.0
 41
1.08987122395718
 10
-1.484292760879741
 20
-3.854699269900723
 30
0.0
 41
1.0
  0
LINE
  5
5010
330
4FD6
100
AcDbEntity
  8
0
100
AcDbLine
 10
-3.482456029873169
 20
-0.5999999999999999
 30
0.0
 11
-3.48245602987317
 21
-1.255389503934209
 31
0.0
  0
LINE
  5
5011
330
4FD6
100
AcDbEntity
  8
0
100
AcDbLine
 10
-3.48245602987317
 20
-1.255389503934209
 30
0.0
 11
-1.484292760879739
 21
-4.548260659749581
 31
0.0
  0
LINE
  5
5012
330
4FD6
100
AcDbEntity
  8
0
100
AcDbLine
 10
-3.5
 20
-1.226477935952965
 30
0.0
 11
-3.48245602987317
 21
-1.255389503934208
 31
0.0
  0
ELLIPSE
  5
5013
330
4FD6
100
AcDbEntity
  8
0
100
AcDbEllipse
 10
0.0
 20
-6.994299426916274
 30
0.0
 11
-0.0000000000000016
 21
-5.76782149096331
 31
0.0
210
0.0
220
0.0
230
1.0
 40
0.6068148963145963
 41
3.041425232428231
 42
3.241760074751351
  0
SPLINE
  5
5014
330
4FD6
100
AcDbEntity
  8
0
100
AcDbSpline
210
0.0
220
0.0
230
1.0
 70
     8
 71
     3
 72
    17
 73
    13
 74
     0
 42
0.000000001
 43
0.0000000001
 40
1.184327351287552
 40
1.184327351287552
 40
1.184327351287552
 40
1.184327351287552
 40
2.274205514078826
 40
2.274205514078826
 40
2.274205514078826
 40
3.408051693561475
 40
3.408051693561475
 40
3.408051693561475
 40
4.539841948284862
 40
4.539841948284862
 40
4.539841948284862
 40
5.098857955892032
 40
5.098857955892032
 40
5.098857955892032
 40
5.098857955892032
 10
-1.944900687440024
 20
-46.02597204779875
 30
0.0
 10
-2.229207734296042
 20
-45.8467305675901
 30
0.0
 10
-2.095016710249034
 20
-45.6674890873814
 30
0.0
 10
-1.601547124977276
 20
-45.48824760717272
 30
0.0
 10
-1.088169920943484
 20
-45.30177514219651
 30
0.0
 10
-0.2127164932304905
 20
-45.11530267722031
 30
0.0
 10
0.5529659045593592
 20
-44.9288302122441
 30
0.0
 10
1.317259943480225
 20
-44.74269586487555
 30
0.0
 10
1.932792758205619
 20
-44.55656151750702
 30
0.0
 10
2.068816380908846
 20
-44.37042717013847
 30
0.0
 10
2.136001428833125
 20
-44.27849133723102
 30
0.0
 10
2.084533414772289
 20
-44.18655550432357
 30
0.0
 10
1.937053781139965
 20
-44.09461967141612
 30
0.0
  0
SPLINE
  5
5015
330
4FD6
100
AcDbEntity
  8
0
100
AcDbSpline
210
0.0
220
0.0
230
1.0
 70
     8
 71
     3
 72
    20
 73
    16
 74
     0
 42
0.000000001
 43
0.0000000001
 40
7.467512658467139
 40
7.467512658467139
 40
7.467512658467139
 40
7.467512658467139
 40
7.923713990406612
 40
7.923713990406612
 40
7.923713990406612
 40
9.04811040185984
 40
9.04811040185984
 40
9.04811040185984
 40
10.17085910653196
 40
10.17085910653196
 40
10.17085910653196
 40
11.29203797442193
 40
11.29203797442193
 40
11.29203797442193
 40
11.38204326307162
 40
11.38204326307162
 40
11.38204326307162
 40
11.38204326307162
 10
-1.937989916409512
 20
-42.92597204779879
 30
0.0
 10
-2.059763418900295
 20
-42.85094512754141
 30
0.0
 10
-2.117146690032567
 20
-42.77591820728402
 30
0.0
 10
-2.094896336982623
 20
-42.70089128702664
 30
0.0
 10
-2.040056038694667
 20
-42.51597293191981
 30
0.0
 10
-1.50432961189223
 20
-42.33105457681298
 30
0.0
 10
-0.7724297603099194
 20
-42.14613622170616
 30
0.0
 10
-0.0416024453670533
 20
-41.96148884863428
 30
0.0
 10
0.8482620336128537
 20
-41.77684147556241
 30
0.0
 10
1.425408917602255
 20
-41.59219410249052
 30
0.0
 10
2.001748829912759
 20
-41.40780490494516
 30
0.0
 10
2.237667521162402
 20
-41.22341570739982
 30
0.0
 10
2.008388687463924
 20
-41.03902650985445
 30
0.0
 10
1.989982786140496
 20
-41.02422423037501
 30
0.0
 10
1.968652664375846
 20
-41.00942195089557
 30
0.0
 10
1.944585128535617
 20
-40.99461967141613
 30
0.0
  0
SPLINE
  5
5016
330
4FD6
100
AcDbEntity
  8
0
100
AcDbSpline
210
0.0
220
0.0
230
1.0
 70
     8
 71
     3
 72
    17
 73
    13
 74
     0
 42
0.000000001
 43
0.0000000001
 40
13.75069796564672
 40
13.75069796564672
 40
13.75069796564672
 40
13.75069796564672
 40
14.64691817159817
 40
14.64691817159817
 40
14.64691817159817
 40
15.76257537833052
 40
15.76257537833052
 40
15.76257537833052
 40
16.87703686989037
 40
16.87703686989037
 40
16.87703686989037
 40
17.6652285702512
 40
17.6652285702512
 40
17.6652285702512
 40
17.6652285702512
 10
-1.941791073299305
 20
-39.82597204779878
 30
0.0
 10
-2.171436578795783
 20
-39.67857957606024
 30
0.0
 10
-2.13914224414548
 20
-39.5311871043217
 30
0.0
 10
-1.833018440979481
 20
-39.38379463258315
 30
0.0
 10
-1.451941084224413
 20
-39.20031352802734
 30
0.0
 10
-0.6651673018435556
 20
-39.01683242347155
 30
0.0
 10
0.1146284324177624
 20
-38.83335131891575
 30
0.0
 10
0.8935884139180396
 20
-38.65006686180619
 30
0.0
 10
1.627784791046627
 20
-38.46678240469663
 30
0.0
 10
1.932816410541926
 20
-38.28349794758707
 30
0.0
 10
2.148546960816312
 20
-38.15387185553008
 30
0.0
 10
2.141238726791642
 20
-38.02424576347311
 30
0.0
 10
1.938680994204824
 20
-37.89461967141612
 30
0.0
  0
SPLINE
  5
5017
330
4FD6
100
AcDbEntity
  8
0
100
AcDbSpline
210
0.0
220
0.0
230
1.0
 70
     8
 71
     3
 72
    20
 73
    16
 74
     0
 42
0.000000001
 43
0.0000000001
 40
20.03388327282631
 40
20.03388327282631
 40
20.03388327282631
 40
20.03388327282631
 40
20.28410840111773
 40
20.28410840111773
 40
20.28410840111773
 40
21.41168188525815
 40
21.41168188525815
 40
21.41168188525815
 40
22.53575003966856
 40
22.53575003966856
 40
22.53575003966856
 40
23.6566288457265
 40
23.6566288457265
 40
23.6566288457265
 40
23.94841387743079
 40
23.94841387743079
 40
23.94841387743079
 40
23.94841387743079
 10
-1.941776818443767
 20
-36.72597204779877
 30
0.0
 10
-2.009352065015992
 20
-36.68481999621028
 30
0.0
 10
-2.056749242187366
 20
-36.64366794462178
 30
0.0
 10
-2.080539625341995
 20
-36.60251589303328
 30
0.0
 10
-2.187744706645653
 20
-36.41707503620965
 30
0.0
 10
-1.810365072038143
 20
-36.23163417938601
 30
0.0
 10
-1.149913306236214
 20
-36.04619332256236
 30
0.0
 10
-0.4915147114625779
 20
-35.86132895264421
 30
0.0
 10
0.414944762210193
 20
-35.67646458272605
 30
0.0
 10
1.087962226669599
 20
-35.4916002128079
 30
0.0
 10
1.759070120848031
 20
-35.30726036346381
 30
0.0
 10
2.164773233712519
 20
-35.12292051411971
 30
0.0
 10
2.090593728783357
 20
-34.93858066477561
 30
0.0
 10
2.071283461624602
 20
-34.89059366698911
 30
0.0
 10
2.019714029897532
 20
-34.84260666920261
 30
0.0
 10
1.941009442159691
 20
-34.79461967141612
 30
0.0
  0
SPLINE
  5
5018
330
4FD6
100
AcDbEntity
  8
0
100
AcDbSpline
210
0.0
220
0.0
230
1.0
 70
     8
 71
     3
 72
    17
 73
    13
 74
     0
 42
0.000000001
 43
0.0000000001
 40
26.3170685800059
 40
26.3170685800059
 40
26.3170685800059
 40
26.3170685800059
 40
27.02921913463595
 40
27.02921913463595
 40
27.02921913463595
 40
28.1598332339947
 40
28.1598332339947
 40
28.1598332339947
 40
29.28322929081174
 40
29.28322929081174
 40
29.28322929081174
 40
30.23159918461038
 40
30.23159918461038
 40
30.23159918461038
 40
30.23159918461038
 10
-1.937491807427216
 20
-33.62597204779877
 30
0.0
 10
-2.121886105523022
 20
-33.5088516907706
 30
0.0
 10
-2.14910812881104
 20
-33.39173133374243
 30
0.0
 10
-1.989609031439227
 20
-33.27461097671425
 30
0.0
 10
-1.736387395717486
 20
-33.08867005998384
 30
0.0
 10
-1.026173858211499
 20
-32.90272914325342
 30
0.0
 10
-0.2399263035690082
 20
-32.71678822652301
 30
0.0
 10
0.5413017061191561
 20
-32.53203438984755
 30
0.0
 10
1.358133571961916
 20
-32.3472805531721
 30
0.0
 10
1.777112062505213
 20
-32.16252671649665
 30
0.0
 10
2.130813309869635
 20
-32.0065577014698
 30
0.0
 10
2.186390542310503
 20
-31.85058868644296
 30
0.0
 10
1.942923599019239
 20
-31.69461967141612
 30
0.0
  0
SPLINE
  5
5019
330
4FD6
100
AcDbEntity
  8
0
100
AcDbSpline
210
0.0
220
0.0
230
1.0
 70
     8
 71
     3
 72
    14
 73
    10
 74
     0
 42
0.000000001
 43
0.0000000001
 40
32.60025388718549
 40
32.60025388718549
 40
32.60025388718549
 40
32.60025388718549
 40
32.66004514674958
 40
32.66004514674958
 40
32.66004514674958
 40
33.79372408260346
 40
33.79372408260346
 40
33.79372408260346
 40
34.67972888599395
 40
34.67972888599395
 40
34.67972888599395
 40
34.67972888599395
 10
-1.94487287015339
 20
-30.52597204779877
 30
0.0
 10
-1.960800536955827
 20
-30.51613877080168
 30
0.0
 10
-1.975507899100363
 20
-30.50630549380459
 30
0.0
 10
-1.988938735422982
 20
-30.4964722168075
 30
0.0
 10
-2.243595625758799
 20
-30.31002725673652
 30
0.0
 10
-2.025634303664002
 20
-30.12358229666553
 30
0.0
 10
-1.45250134561593
 20
-29.93713733659454
 30
0.0
 10
-1.004580388674521
 20
-29.79142489106303
 30
0.0
 10
-0.3595756801543971
 20
-29.64571244553152
 30
0.0
 10
0.2560020099311193
 20
-29.5
 30
0.0
  0
SPLINE
  5
501A
330
4FD6
100
AcDbEntity
  8
0
100
AcDbSpline
210
0.0
220
0.0
230
1.0
 70
     8
 71
     3
 72
    14
 73
    10
 74
     0
 42
0.000000001
 43
0.0000000001
 40
2.152323737903125
 40
2.152323737903125
 40
2.152323737903125
 40
2.152323737903125
 40
2.563572528324774
 40
2.563572528324774
 40
2.563572528324774
 40
3.84124384212024
 40
3.84124384212024
 40
3.84124384212024
 40
4.712388980384689
 40
4.712388980384689
 40
4.712388980384689
 40
4.712388980384689
 10
-1.080111566379311
 20
-45.08650146198968
 30
0.0
 10
-0.9844769159206089
 20
-45.01886744155898
 30
0.0
 10
-0.85953404709158
 20
-44.95123342112828
 30
0.0
 10
-0.7102768042581267
 20
-44.88359940069757
 30
0.0
 10
-0.2465631059175612
 20
-44.67347343861906
 30
0.0
 10
0.4135510677880782
 20
-44.46334747654056
 30
0.0
 10
0.8371361210224673
 20
-44.25322151446205
 30
0.0
 10
1.125945970458984
 20
-44.10995289105994
 30
0.0
 10
1.288706951339804
 20
-43.96668426765785
 30
0.0
 10
1.293590192686606
 20
-43.82341564425574
 30
0.0
  0
SPLINE
  5
501B
330
4FD6
100
AcDbEntity
  8
0
100
AcDbSpline
210
0.0
220
0.0
230
1.0
 70
     8
 71
     3
 72
    14
 73
    10
 74
     0
 42
0.000000001
 43
0.0000000001
 40
8.435509045082712
 40
8.435509045082712
 40
8.435509045082712
 40
8.435509045082712
 40
8.927329935836764
 40
8.927329935836764
 40
8.927329935836764
 40
10.19328590121459
 40
10.19328590121459
 40
10.19328590121459
 40
10.99557428756427
 40
10.99557428756427
 40
10.99557428756427
 40
10.99557428756427
 10
-1.079454628818265
 20
-41.98650146198968
 30
0.0
 10
-0.9641801759367503
 20
-41.90561654524767
 30
0.0
 10
-0.807632365981259
 20
-41.82473162850566
 30
0.0
 10
-0.6203397343918048
 20
-41.74384671176365
 30
0.0
 10
-0.1382450761749571
 20
-41.53564745714955
 30
0.0
 10
0.5091808350345386
 20
-41.32744820253544
 30
0.0
 10
0.9035822882686749
 20
-41.11924894792134
 30
0.0
 10
1.15353071786887
 20
-40.98730451336614
 30
0.0
 10
1.2893537149144
 20
-40.85536007881095
 30
0.0
 10
1.292834265086373
 20
-40.72341564425574
 30
0.0
  0
SPLINE
  5
501C
330
4FD6
100
AcDbEntity
  8
0
100
AcDbSpline
210
0.0
220
0.0
230
1.0
 70
     8
 71
     3
 72
    14
 73
    10
 74
     0
 42
0.000000001
 43
0.0000000001
 40
14.7186943522623
 40
14.7186943522623
 40
14.7186943522623
 40
14.7186943522623
 40
15.27961740216909
 40
15.27961740216909
 40
15.27961740216909
 40
16.57272137490451
 40
16.57272137490451
 40
16.57272137490451
 40
17.27875959474386
 40
17.27875959474386
 40
17.27875959474386
 40
17.27875959474386
 10
-1.078415731859308
 20
-38.88650146198969
 30
0.0
 10
-0.9463382387371387
 20
-38.79425199669995
 30
0.0
 10
-0.761083256899293
 20
-38.70200253141021
 30
0.0
 10
-0.5399766858862101
 20
-38.60975306612047
 30
0.0
 10
-0.0302565283308501
 20
-38.39708904728811
 30
0.0
 10
0.6256544096447981
 20
-38.18442502845574
 30
0.0
 10
0.9892198417840141
 20
-37.97176100962338
 30
0.0
 10
1.187727537928275
 20
-37.85564588783417
 30
0.0
 10
1.289806556982042
 20
-37.73953076604496
 30
0.0
 10
1.291028670921973
 20
-37.62341564425575
 30
0.0
  0
SPLINE
  5
501D
330
4FD6
100
AcDbEntity
  8
0
100
AcDbSpline
210
0.0
220
0.0
230
1.0
 70
     8
 71
     3
 72
    14
 73
    10
 74
     0
 42
0.000000001
 43
0.0000000001
 40
21.00187965944189
 40
21.00187965944189
 40
21.00187965944189
 40
21.00187965944189
 40
21.69075231098572
 40
21.69075231098572
 40
21.69075231098572
 40
22.95707588757903
 40
22.95707588757903
 40
22.95707588757903
 40
23.56194490192345
 40
23.56194490192345
 40
23.56194490192345
 40
23.56194490192345
 10
-1.079439689360888
 20
-35.78650146198969
 30
0.0
 10
-0.9148510265639739
 20
-35.67320939141386
 30
0.0
 10
-0.6698123059596886
 20
-35.55991732083805
 30
0.0
 10
-0.3846683737576409
 20
-35.44662525026222
 30
0.0
 10
0.1394988772730786
 20
-35.23836553826797
 30
0.0
 10
0.757306064188036
 20
-35.03010582627372
 30
0.0
 10
1.069349567324552
 20
-34.82184611427947
 30
0.0
 10
1.218399501846451
 20
-34.72236929093823
 30
0.0
 10
1.292098483947263
 20
-34.62289246759699
 30
0.0
 10
1.291659132522674
 20
-34.52341564425574
 30
0.0
  0
SPLINE
  5
501E
330
4FD6
100
AcDbEntity
  8
0
100
AcDbSpline
210
0.0
220
0.0
230
1.0
 70
     8
 71
     3
 72
    14
 73
    10
 74
     0
 42
0.000000001
 43
0.0000000001
 40
27.28506496662147
 40
27.28506496662147
 40
27.28506496662147
 40
27.28506496662147
 40
28.09101580515785
 40
28.09101580515785
 40
28.09101580515785
 40
29.35796133732726
 40
29.35796133732726
 40
29.35796133732726
 40
29.84513020910304
 40
29.84513020910304
 40
29.84513020910304
 40
29.84513020910304
 10
-1.080596204682315
 20
-32.68650146198968
 30
0.0
 10
-0.8862989824939182
 20
-32.55395470015283
 30
0.0
 10
-0.5803744598403473
 20
-32.42140793831597
 30
0.0
 10
-0.2369809665442779
 20
-32.28886117647911
 30
0.0
 10
0.3028296910109357
 20
-32.08049917760373
 30
0.0
 10
0.8917545063753001
 20
-31.87213717872835
 30
0.0
 10
1.148760239889658
 20
-31.66377517985296
 30
0.0
 10
1.247584688184375
 20
-31.58365533465389
 30
0.0
 10
1.29438654956985
 20
-31.50353548945482
 30
0.0
 10
1.292584958108981
 20
-31.42341564425574
 30
0.0
  0
SPLINE
  5
501F
330
4FD6
100
AcDbEntity
  8
0
100
AcDbSpline
210
0.0
220
0.0
230
1.0
 70
     8
 71
     3
 72
    11
 73
     7
 74
     0
 42
0.000000001
 43
0.0000000001
 40
33.56825027380106
 40
33.56825027380106
 40
33.56825027380106
 40
33.56825027380106
 40
34.42029993131169
 40
34.42029993131169
 40
34.42029993131169
 40
34.67972888599395
 40
34.67972888599395
 40
34.67972888599395
 40
34.67972888599395
 10
-1.081598384944199
 20
-29.58650146198969
 30
0.0
 10
-0.8756710578466243
 20
-29.44637328341203
 30
0.0
 10
-0.5435766668109191
 20
-29.30624510483438
 30
0.0
 10
-0.1778257567417085
 20
-29.16611692625672
 30
0.0
 10
-0.0664632610973067
 20
-29.12345121238724
 30
0.0
 10
0.0468966789762253
 20
-29.08078549851777
 30
0.0
 10
0.1584774347192731
 20
-29.0381197846483
 30
0.0
  0
SPLINE
  5
5020
330
4FD6
100
AcDbEntity
  8
0
100
AcDbSpline
210
0.0
220
0.0
230
1.0
 70
     8
 71
     3
 72
    11
 73
     7
 74
     0
 42
0.000000001
 43
0.0000000001
 40
-34.67972888599394
 40
-34.67972888599394
 40
-34.67972888599394
 40
-34.67972888599394
 40
-33.39652923511814
 40
-33.39652923511814
 40
-33.39652923511814
 40
-32.98672286269282
 40
-32.98672286269282
 40
-32.98672286269282
 40
-32.98672286269282
 10
0.1584774347192548
 20
-29.9618802153517
 30
0.0
 10
-0.3934285273168561
 20
-30.17291536834274
 30
0.0
 10
-0.970808146388792
 20
-30.38395052133377
 30
0.0
 10
-1.192357383595777
 20
-30.59498567432481
 30
0.0
 10
-1.263111992320478
 20
-30.66238247453625
 30
0.0
 10
-1.295706966763041
 20
-30.72977927474771
 30
0.0
 10
-1.29340984040043
 20
-30.79717607495915
 30
0.0
  0
SPLINE
  5
5021
330
4FD6
100
AcDbEntity
  8
0
100
AcDbSpline
210
0.0
220
0.0
230
1.0
 70
     8
 71
     3
 72
    14
 73
    10
 74
     0
 42
0.000000001
 43
0.0000000001
 40
-29.26360279799481
 40
-29.26360279799481
 40
-29.26360279799481
 40
-29.26360279799481
 40
-28.29075909881209
 40
-28.29075909881209
 40
-28.29075909881209
 40
-27.02046642619988
 40
-27.02046642619988
 40
-27.02046642619988
 40
-26.70353755551325
 40
-26.70353755551325
 40
-26.70353755551325
 40
-26.70353755551325
 10
1.083357772012736
 20
-32.6340902572252
 30
0.0
 10
0.8475807024529533
 20
-32.7940842369253
 30
0.0
 10
0.4428605589909246
 20
-32.95407821662538
 30
0.0
 10
0.021351821348321
 20
-33.11407219632548
 30
0.0
 10
-0.5290340847527715
 20
-33.32298466627911
 30
0.0
 10
-1.063705289454823
 20
-33.53189713623275
 30
0.0
 10
-1.235256119027557
 20
-33.74080960618638
 30
0.0
 10
-1.278056815161653
 20
-33.79293176244397
 30
0.0
 10
-1.297405467379124
 20
-33.84505391870156
 30
0.0
 10
-1.295367538386126
 20
-33.89717607495915
 30
0.0
  0
SPLINE
  5
5022
330
4FD6
100
AcDbEntity
  8
0
100
AcDbSpline
210
0.0
220
0.0
230
1.0
 70
     8
 71
     3
 72
    14
 73
    10
 74
     0
 42
0.000000001
 43
0.0000000001
 40
-22.98041749081522
 40
-22.98041749081522
 40
-22.98041749081522
 40
-22.98041749081522
 40
-21.96042022507707
 40
-21.96042022507707
 40
-21.96042022507707
 40
-20.70013508464185
 40
-20.70013508464185
 40
-20.70013508464185
 40
-20.42035224833366
 40
-20.42035224833366
 40
-20.42035224833366
 40
-20.42035224833366
 10
1.084297590820145
 20
-35.73409025722521
 30
0.0
 10
0.837355190423371
 20
-35.90183911756707
 30
0.0
 10
0.4018495881204298
 20
-36.06958797790892
 30
0.0
 10
-0.0399405688505824
 20
-36.23733683825077
 30
0.0
 10
-0.5858063164594119
 20
-36.44460346838316
 30
0.0
 10
-1.098639711234923
 20
-36.65187009851553
 30
0.0
 10
-1.249450059079912
 20
-36.85913672864792
 30
0.0
 10
-1.282929900673636
 20
-36.90514984408499
 30
0.0
 10
-1.297865758428784
 20
-36.95116295952207
 30
0.0
 10
-1.2959031281397
 20
-36.99717607495914
 30
0.0
  0
SPLINE
  5
5023
330
4FD6
100
AcDbEntity
  8
0
100
AcDbSpline
210
0.0
220
0.0
230
1.0
 70
     8
 71
     3
 72
    14
 73
    10
 74
     0
 42
0.000000001
 43
0.0000000001
 40
-16.69723218363563
 40
-16.69723218363563
 40
-16.69723218363563
 40
-16.69723218363563
 40
-15.5352334818281
 40
-15.5352334818281
 40
-15.5352334818281
 40
-14.25968147826326
 40
-14.25968147826326
 40
-14.25968147826326
 40
-14.13716694115406
 40
-14.13716694115406
 40
-14.13716694115406
 40
-14.13716694115406
 10
1.085768944627313
 20
-38.8340902572252
 30
0.0
 10
0.8060639439517023
 20
-39.02519268905954
 30
0.0
 10
0.27260603611219
 20
-39.21629512089388
 30
0.0
 10
-0.2234337962907074
 20
-39.40739755272821
 30
0.0
 10
-0.7679478315346808
 20
-39.61717497281759
 30
0.0
 10
-1.222706512369649
 20
-39.82695239290698
 30
0.0
 10
-1.29025581967331
 20
-40.03672981299636
 30
0.0
 10
-1.296743812395855
 20
-40.05687856698395
 30
0.0
 10
-1.299611418717991
 20
-40.07702732097155
 30
0.0
 10
-1.299046351912631
 20
-40.09717607495915
 30
0.0
  0
SPLINE
  5
5024
330
4FD6
100
AcDbEntity
  8
0
100
AcDbSpline
210
0.0
220
0.0
230
1.0
 70
     8
 71
     3
 72
    14
 73
    10
 74
     0
 42
0.000000001
 43
0.0000000001
 40
-10.41404687645605
 40
-10.41404687645605
 40
-10.41404687645605
 40
-10.41404687645605
 40
-9.152728419889077
 40
-9.152728419889077
 40
-9.152728419889077
 40
-7.865045834792141
 40
-7.865045834792141
 40
-7.865045834792141
 40
-7.853981633974484
 40
-7.853981633974484
 40
-7.853981633974484
 40
-7.853981633974484
 10
1.086226041454282
 20
-41.93409025722519
 30
0.0
 10
0.7844997120255009
 20
-42.14152682664006
 30
0.0
 10
0.1771516258217168
 20
-42.34896339605493
 30
0.0
 10
-0.3493180118207722
 20
-42.55639996546978
 30
0.0
 10
-0.8867919387620236
 20
-42.76817238230636
 30
0.0
 10
-1.293746778580809
 20
-42.97994479914294
 30
0.0
 10
-1.299920430060898
 20
-43.19171721597952
 30
0.0
 10
-1.299973476145814
 20
-43.19353683563939
 30
0.0
 10
-1.299996939834979
 20
-43.19535645529926
 30
0.0
 10
-1.299990986420396
 20
-43.19717607495913
 30
0.0
  0
SPLINE
  5
5025
330
4FD6
100
AcDbEntity
  8
0
100
AcDbSpline
210
0.0
220
0.0
230
1.0
 70
     8
 71
     3
 72
    14
 73
    10
 74
     0
 42
0.000000001
 43
0.0000000001
 40
-4.130861569276465
 40
-4.130861569276465
 40
-4.130861569276465
 40
-4.130861569276465
 40
-4.062390022059941
 40
-4.062390022059941
 40
-4.062390022059941
 40
-2.783923024660569
 40
-2.783923024660569
 40
-2.783923024660569
 40
-1.570796326794891
 40
-1.570796326794891
 40
-1.570796326794891
 40
-1.570796326794891
 10
1.085965830291391
 20
-45.03409025722517
 30
0.0
 10
1.069885364507426
 20
-45.04535109526586
 30
0.0
 10
1.052866221178777
 20
-45.05661193330655
 30
0.0
 10
1.03490975764322
 20
-45.06787277134724
 30
0.0
 10
0.6996355166855921
 20
-45.27812959163706
 30
0.0
 10
0.0638224635523136
 20
-45.4883864119269
 30
0.0
 10
-0.455119979380328
 20
-45.69864323221673
 30
0.0
 10
-0.947540146234713
 20
-45.89815417979754
 30
0.0
 10
-1.297295693828647
 20
-46.09766512737833
 30
0.0
 10
-1.299843626364066
 20
-46.29717607495915
 30
0.0
  0
SPLINE
  5
5026
330
4FD6
100
AcDbEntity
  8
0
100
AcDbSpline
210
0.0
220
0.0
230
1.0
 70
     8
 71
     3
 72
     8
 73
     4
 74
     0
 42
0.000000001
 43
0.0000000001
 40
0.0
 40
0.0
 40
0.0
 40
0.0
 40
0.1027150179834986
 40
0.1027150179834986
 40
0.1027150179834986
 40
0.1027150179834986
 10
-1.945116066041916
 20
-45.64461967141611
 30
0.0
 10
-1.654824479336272
 20
-45.46367425115389
 30
0.0
 10
-1.365812115077666
 20
-45.27961385061428
 30
0.0
 10
-1.086312001664418
 20
-45.08650146198969
 30
0.0
  0
SPLINE
  5
5027
330
4FD6
100
AcDbEntity
  8
0
100
AcDbSpline
210
0.0
220
0.0
230
1.0
 70
     8
 71
     3
 72
     8
 73
     4
 74
     0
 42
0.000000001
 43
0.0000000001
 40
0.0
 40
0.0
 40
0.0
 40
0.0
 40
0.1027150179834991
 40
0.1027150179834991
 40
0.1027150179834991
 40
0.1027150179834991
 10
-1.945116066041916
 20
-42.54461967141612
 30
0.0
 10
-1.654824479336271
 20
-42.36367425115388
 30
0.0
 10
-1.365812115077667
 20
-42.17961385061427
 30
0.0
 10
-1.086312001664418
 20
-41.98650146198969
 30
0.0
  0
SPLINE
  5
5028
330
4FD6
100
AcDbEntity
  8
0
100
AcDbSpline
210
0.0
220
0.0
230
1.0
 70
     8
 71
     3
 72
     8
 73
     4
 74
     0
 42
0.000000001
 43
0.0000000001
 40
0.0
 40
0.0
 40
0.0
 40
0.0
 40
0.1027150179834991
 40
0.1027150179834991
 40
0.1027150179834991
 40
0.1027150179834991
 10
-1.945116066041916
 20
-39.44461967141612
 30
0.0
 10
-1.654824479336271
 20
-39.26367425115389
 30
0.0
 10
-1.365812115077667
 20
-39.07961385061428
 30
0.0
 10
-1.086312001664419
 20
-38.88650146198969
 30
0.0
  0
SPLINE
  5
5029
330
4FD6
100
AcDbEntity
  8
0
100
AcDbSpline
210
0.0
220
0.0
230
1.0
 70
     8
 71
     3
 72
     8
 73
     4
 74
     0
 42
0.000000001
 43
0.0000000001
 40
0.0
 40
0.0
 40
0.0
 40
0.0
 40
0.1027150179834992
 40
0.1027150179834992
 40
0.1027150179834992
 40
0.1027150179834992
 10
-1.945116066041917
 20
-36.34461967141612
 30
0.0
 10
-1.654824479336271
 20
-36.16367425115389
 30
0.0
 10
-1.365812115077666
 20
-35.97961385061428
 30
0.0
 10
-1.086312001664417
 20
-35.78650146198969
 30
0.0
  0
SPLINE
  5
502A
330
4FD6
100
AcDbEntity
  8
0
100
AcDbSpline
210
0.0
220
0.0
230
1.0
 70
     8
 71
     3
 72
     8
 73
     4
 74
     0
 42
0.000000001
 43
0.0000000001
 40
0.0
 40
0.0
 40
0.0
 40
0.0
 40
0.102715017983499
 40
0.102715017983499
 40
0.102715017983499
 40
0.102715017983499
 10
-1.945116066041917
 20
-33.24461967141612
 30
0.0
 10
-1.654824479336272
 20
-33.06367425115388
 30
0.0
 10
-1.365812115077666
 20
-32.87961385061428
 30
0.0
 10
-1.086312001664418
 20
-32.68650146198968
 30
0.0
  0
SPLINE
  5
502B
330
4FD6
100
AcDbEntity
  8
0
100
AcDbSpline
210
0.0
220
0.0
230
1.0
 70
     8
 71
     3
 72
     8
 73
     4
 74
     0
 42
0.000000001
 43
0.0000000001
 40
0.0
 40
0.0
 40
0.0
 40
0.0
 40
0.1027150179834991
 40
0.1027150179834991
 40
0.1027150179834991
 40
0.1027150179834991
 10
-1.945116066041917
 20
-30.14461967141612
 30
0.0
 10
-1.654824479336272
 20
-29.96367425115389
 30
0.0
 10
-1.365812115077669
 20
-29.77961385061427
 30
0.0
 10
-1.08631200166442
 20
-29.58650146198969
 30
0.0
  0
SPLINE
  5
502C
330
4FD6
100
AcDbEntity
  8
0
100
AcDbSpline
210
0.0
220
0.0
230
1.0
 70
     8
 71
     3
 72
     8
 73
     4
 74
     0
 42
0.000000001
 43
0.0000000001
 40
0.025969300647768
 40
0.025969300647768
 40
0.025969300647768
 40
0.025969300647768
 40
0.1027150179834991
 40
0.1027150179834991
 40
0.1027150179834991
 40
0.1027150179834991
 10
1.299999999999996
 20
-43.68133458071906
 30
0.0
 10
1.51203510514548
 20
-43.82248622369968
 30
0.0
 10
1.728218513029451
 20
-43.95942243980125
 30
0.0
 10
1.945116066041916
 20
-44.09461967141612
 30
0.0
  0
SPLINE
  5
502D
330
4FD6
100
AcDbEntity
  8
0
100
AcDbSpline
210
0.0
220
0.0
230
1.0
 70
     8
 71
     3
 72
     8
 73
     4
 74
     0
 42
0.000000001
 43
0.0000000001
 40
0.0259693006477681
 40
0.0259693006477681
 40
0.0259693006477681
 40
0.0259693006477681
 40
0.1027150179834992
 40
0.1027150179834992
 40
0.1027150179834992
 40
0.1027150179834992
 10
1.299999999999997
 20
-40.58133458071906
 30
0.0
 10
1.51203510514548
 20
-40.72248622369968
 30
0.0
 10
1.728218513029451
 20
-40.85942243980125
 30
0.0
 10
1.945116066041916
 20
-40.99461967141611
 30
0.0
  0
SPLINE
  5
502E
330
4FD6
100
AcDbEntity
  8
0
100
AcDbSpline
210
0.0
220
0.0
230
1.0
 70
     8
 71
     3
 72
     8
 73
     4
 74
     0
 42
0.000000001
 43
0.0000000001
 40
0.0259693006477678
 40
0.0259693006477678
 40
0.0259693006477678
 40
0.0259693006477678
 40
0.1027150179834988
 40
0.1027150179834988
 40
0.1027150179834988
 40
0.1027150179834988
 10
1.299999999999996
 20
-37.48133458071906
 30
0.0
 10
1.51203510514548
 20
-37.62248622369968
 30
0.0
 10
1.728218513029451
 20
-37.75942243980126
 30
0.0
 10
1.945116066041916
 20
-37.89461967141612
 30
0.0
  0
SPLINE
  5
502F
330
4FD6
100
AcDbEntity
  8
0
100
AcDbSpline
210
0.0
220
0.0
230
1.0
 70
     8
 71
     3
 72
     8
 73
     4
 74
     0
 42
0.000000001
 43
0.0000000001
 40
0.0259693006477678
 40
0.0259693006477678
 40
0.0259693006477678
 40
0.0259693006477678
 40
0.1027150179834988
 40
0.1027150179834988
 40
0.1027150179834988
 40
0.1027150179834988
 10
1.299999999999996
 20
-34.38133458071906
 30
0.0
 10
1.51203510514548
 20
-34.52248622369968
 30
0.0
 10
1.728218513029452
 20
-34.65942243980125
 30
0.0
 10
1.945116066041917
 20
-34.79461967141612
 30
0.0
  0
SPLINE
  5
5030
330
4FD6
100
AcDbEntity
  8
0
100
AcDbSpline
210
0.0
220
0.0
230
1.0
 70
     8
 71
     3
 72
     8
 73
     4
 74
     0
 42
0.000000001
 43
0.0000000001
 40
0.025969300647768
 40
0.025969300647768
 40
0.025969300647768
 40
0.025969300647768
 40
0.102715017983499
 40
0.102715017983499
 40
0.102715017983499
 40
0.102715017983499
 10
1.299999999999996
 20
-31.28133458071906
 30
0.0
 10
1.512035105145479
 20
-31.42248622369969
 30
0.0
 10
1.728218513029452
 20
-31.55942243980125
 30
0.0
 10
1.945116066041917
 20
-31.69461967141611
 30
0.0
  0
SPLINE
  5
5031
330
4FD6
100
AcDbEntity
  8
0
100
AcDbSpline
210
0.0
220
0.0
230
1.0
 70
     8
 71
     3
 72
     8
 73
     4
 74
     0
 42
0.000000001
 43
0.0000000001
 40
0.0
 40
0.0
 40
0.0
 40
0.0
 40
0.1027150179834991
 40
0.1027150179834991
 40
0.1027150179834991
 40
0.1027150179834991
 10
1.945116066041917
 20
-44.47597204779877
 30
0.0
 10
1.654824479336272
 20
-44.65691746806101
 30
0.0
 10
1.365812115077668
 20
-44.84097786860061
 30
0.0
 10
1.08631200166442
 20
-45.0340902572252
 30
0.0
  0
SPLINE
  5
5032
330
4FD6
100
AcDbEntity
  8
0
100
AcDbSpline
210
0.0
220
0.0
230
1.0
 70
     8
 71
     3
 72
     8
 73
     4
 74
     0
 42
0.000000001
 43
0.0000000001
 40
0.0
 40
0.0
 40
0.0
 40
0.0
 40
0.1027150179834985
 40
0.1027150179834985
 40
0.1027150179834985
 40
0.1027150179834985
 10
1.945116066041916
 20
-41.37597204779878
 30
0.0
 10
1.654824479336273
 20
-41.556917468061
 30
0.0
 10
1.365812115077667
 20
-41.74097786860062
 30
0.0
 10
1.08631200166442
 20
-41.9340902572252
 30
0.0
  0
SPLINE
  5
5033
330
4FD6
100
AcDbEntity
  8
0
100
AcDbSpline
210
0.0
220
0.0
230
1.0
 70
     8
 71
     3
 72
     8
 73
     4
 74
     0
 42
0.000000001
 43
0.0000000001
 40
0.0
 40
0.0
 40
0.0
 40
0.0
 40
0.102715017983499
 40
0.102715017983499
 40
0.102715017983499
 40
0.102715017983499
 10
1.945116066041917
 20
-38.27597204779878
 30
0.0
 10
1.654824479336272
 20
-38.45691746806101
 30
0.0
 10
1.365812115077669
 20
-38.64097786860062
 30
0.0
 10
1.08631200166442
 20
-38.83409025722521
 30
0.0
  0
SPLINE
  5
5034
330
4FD6
100
AcDbEntity
  8
0
100
AcDbSpline
210
0.0
220
0.0
230
1.0
 70
     8
 71
     3
 72
     8
 73
     4
 74
     0
 42
0.000000001
 43
0.0000000001
 40
0.0
 40
0.0
 40
0.0
 40
0.0
 40
0.1027150179834986
 40
0.1027150179834986
 40
0.1027150179834986
 40
0.1027150179834986
 10
1.945116066041917
 20
-35.17597204779878
 30
0.0
 10
1.654824479336273
 20
-35.35691746806101
 30
0.0
 10
1.365812115077667
 20
-35.54097786860062
 30
0.0
 10
1.08631200166442
 20
-35.73409025722521
 30
0.0
  0
SPLINE
  5
5035
330
4FD6
100
AcDbEntity
  8
0
100
AcDbSpline
210
0.0
220
0.0
230
1.0
 70
     8
 71
     3
 72
     8
 73
     4
 74
     0
 42
0.000000001
 43
0.0000000001
 40
0.0
 40
0.0
 40
0.0
 40
0.0
 40
0.102715017983499
 40
0.102715017983499
 40
0.102715017983499
 40
0.102715017983499
 10
1.945116066041916
 20
-32.07597204779878
 30
0.0
 10
1.654824479336272
 20
-32.25691746806101
 30
0.0
 10
1.365812115077668
 20
-32.44097786860062
 30
0.0
 10
1.08631200166442
 20
-32.6340902572252
 30
0.0
  0
SPLINE
  5
5036
330
4FD6
100
AcDbEntity
  8
0
100
AcDbSpline
210
0.0
220
0.0
230
1.0
 70
     8
 71
     3
 72
     8
 73
     4
 74
     0
 42
0.000000001
 43
0.0000000001
 40
0.0259693006477682
 40
0.0259693006477682
 40
0.0259693006477682
 40
0.0259693006477682
 40
0.1027150179834994
 40
0.1027150179834994
 40
0.1027150179834994
 40
0.1027150179834994
 10
-1.299999999999997
 20
-30.93925713849584
 30
0.0
 10
-1.512035105145481
 20
-30.79810549551521
 30
0.0
 10
-1.728218513029453
 20
-30.66116927941365
 30
0.0
 10
-1.945116066041919
 20
-30.52597204779877
 30
0.0
  0
SPLINE
  5
5037
330
4FD6
100
AcDbEntity
  8
0
100
AcDbSpline
210
0.0
220
0.0
230
1.0
 70
     8
 71
     3
 72
     8
 73
     4
 74
     0
 42
0.000000001
 43
0.0000000001
 40
0.0259693006477678
 40
0.0259693006477678
 40
0.0259693006477678
 40
0.0259693006477678
 40
0.1027150179834988
 40
0.1027150179834988
 40
0.1027150179834988
 40
0.1027150179834988
 10
-1.299999999999997
 20
-34.03925713849584
 30
0.0
 10
-1.51203510514548
 20
-33.89810549551521
 30
0.0
 10
-1.728218513029451
 20
-33.76116927941364
 30
0.0
 10
-1.945116066041916
 20
-33.62597204779878
 30
0.0
  0
SPLINE
  5
5038
330
4FD6
100
AcDbEntity
  8
0
100
AcDbSpline
210
0.0
220
0.0
230
1.0
 70
     8
 71
     3
 72
     8
 73
     4
 74
     0
 42
0.000000001
 43
0.0000000001
 40
0.0259693006477679
 40
0.0259693006477679
 40
0.0259693006477679
 40
0.0259693006477679
 40
0.1027150179834988
 40
0.1027150179834988
 40
0.1027150179834988
 40
0.1027150179834988
 10
-1.299999999999997
 20
-37.13925713849584
 30
0.0
 10
-1.51203510514548
 20
-36.99810549551521
 30
0.0
 10
-1.728218513029452
 20
-36.86116927941365
 30
0.0
 10
-1.945116066041916
 20
-36.72597204779878
 30
0.0
  0
SPLINE
  5
5039
330
4FD6
100
AcDbEntity
  8
0
100
AcDbSpline
210
0.0
220
0.0
230
1.0
 70
     8
 71
     3
 72
     8
 73
     4
 74
     0
 42
0.000000001
 43
0.0000000001
 40
0.025969300647768
 40
0.025969300647768
 40
0.025969300647768
 40
0.025969300647768
 40
0.1027150179834991
 40
0.1027150179834991
 40
0.1027150179834991
 40
0.1027150179834991
 10
-1.299999999999997
 20
-40.23925713849583
 30
0.0
 10
-1.51203510514548
 20
-40.0981054955152
 30
0.0
 10
-1.728218513029451
 20
-39.96116927941364
 30
0.0
 10
-1.945116066041916
 20
-39.82597204779877
 30
0.0
  0
SPLINE
  5
503A
330
4FD6
100
AcDbEntity
  8
0
100
AcDbSpline
210
0.0
220
0.0
230
1.0
 70
     8
 71
     3
 72
     8
 73
     4
 74
     0
 42
0.000000001
 43
0.0000000001
 40
0.025969300647768
 40
0.025969300647768
 40
0.025969300647768
 40
0.025969300647768
 40
0.1027150179834991
 40
0.1027150179834991
 40
0.1027150179834991
 40
0.1027150179834991
 10
-1.299999999999997
 20
-43.33925713849583
 30
0.0
 10
-1.51203510514548
 20
-43.19810549551521
 30
0.0
 10
-1.728218513029451
 20
-43.06116927941364
 30
0.0
 10
-1.945116066041917
 20
-42.92597204779877
 30
0.0
  0
SPLINE
  5
503B
330
4FD6
100
AcDbEntity
  8
0
100
AcDbSpline
210
0.0
220
0.0
230
1.0
 70
     8
 71
     3
 72
     8
 73
     4
 74
     0
 42
0.000000001
 43
0.0000000001
 40
0.025969300647768
 40
0.025969300647768
 40
0.025969300647768
 40
0.025969300647768
 40
0.102715017983499
 40
0.102715017983499
 40
0.102715017983499
 40
0.102715017983499
 10
-1.299999999999998
 20
-46.43925713849582
 30
0.0
 10
-1.51203510514548
 20
-46.2981054955152
 30
0.0
 10
-1.728218513029451
 20
-46.16116927941363
 30
0.0
 10
-1.945116066041916
 20
-46.02597204779876
 30
0.0
  0
LINE
  5
503C
330
4FD6
100
AcDbEntity
  8
0
100
AcDbLine
 10
0.1584774347192639
 20
-29.0381197846483
 30
0.0
 11
0.2560020099311193
 21
-29.5
 31
0.0
  0
SPLINE
  5
503D
330
4FD6
100
AcDbEntity
  8
0
100
AcDbSpline
210
0.0
220
0.0
230
1.0
 70
     8
 71
     3
 72
    11
 73
     7
 74
     0
 42
0.000000001
 43
0.0000000001
 40
0.0
 40
0.0
 40
0.0
 40
0.0
 40
1.140855774200599
 40
1.140855774200599
 40
1.140855774200599
 40
1.808835911655516
 40
1.808835911655516
 40
1.808835911655516
 40
1.808835911655516
 10
0.2560020099311195
 20
-29.5
 30
0.0
 10
1.039403721046542
 20
-29.31237473632041
 30
0.0
 10
1.64116247119007
 20
-29.12474947264082
 30
0.0
 10
1.784615702930351
 20
-28.93712420896123
 30
0.0
 10
1.868608712058406
 20
-28.82726812350597
 30
0.0
 10
1.797835393463856
 20
-28.71741203805072
 30
0.0
 10
1.621645399327287
 20
-28.60755595259546
 30
0.0
  0
SPLINE
  5
503E
330
4FD6
100
AcDbEntity
  8
0
100
AcDbSpline
210
0.0
220
0.0
230
1.0
 70
     8
 71
     3
 72
    14
 73
    10
 74
     0
 42
0.000000001
 43
0.0000000001
 40
0.0
 40
0.0
 40
0.0
 40
0.0
 40
0.0550986093957229
 40
0.0550986093957229
 40
0.1101972187914459
 40
0.1101972187914459
 40
0.1652958281871688
 40
0.1652958281871688
 40
0.1968035073196959
 40
0.1968035073196959
 40
0.1968035073196959
 40
0.1968035073196959
 10
0.1584774347192641
 20
-29.0381197846483
 30
0.0
 10
0.3335095845656643
 20
-28.98680375687195
 30
0.0
 10
0.5023509830410853
 20
-28.93601155596169
 30
0.0
 10
0.8070535372379699
 20
-28.833379500409
 30
0.0
 10
0.9397525735060296
 20
-28.78258729949873
 30
0.0
 10
1.14965681169531
 20
-28.67995524394605
 30
0.0
 10
1.224683685060409
 20
-28.62916304303579
 30
0.0
 10
1.288382517985636
 20
-28.54850237380178
 30
0.0
 10
1.299999114139665
 20
-28.51932902522785
 30
0.0
 10
1.299999333207554
 20
-28.4901310647307
 30
0.0
  0
LINE
  5
503F
330
4FD6
100
AcDbEntity
  8
0
100
AcDbLine
 10
0.2560020099311193
 20
-29.5
 30
0.0
 11
0.1584774347192639
 21
-29.9618802153517
 31
0.0
  0
SPLINE
  5
5040
330
4FD6
100
AcDbEntity
  8
0
100
AcDbSpline
210
0.0
220
0.0
230
1.0
 70
     8
 71
     3
 72
    12
 73
     8
 74
     0
 42
0.000000001
 43
0.0000000001
 40
0.4676950855011032
 40
0.4676950855011032
 40
0.4676950855011032
 40
0.4676950855011032
 40
0.495612345409421
 40
0.495612345409421
 40
0.5368462054218634
 40
0.5368462054218634
 40
0.5780800654343058
 40
0.5780800654343058
 40
0.5780800654343058
 40
0.5780800654343058
 10
1.009840785842986
 20
-29.49496513357776
 30
0.0
 10
0.9570643749865958
 20
-29.53418982864424
 30
0.0
 10
0.8979670317061305
 20
-29.57343464327784
 30
0.0
 10
0.7377261059126317
 20
-29.67114887108691
 30
0.0
 10
0.6312089526825883
 20
-29.72911607168363
 30
0.0
 10
0.402773122230017
 20
-29.84564736706453
 30
0.0
 10
0.2820342134828608
 20
-29.90361456766125
 30
0.0
 10
0.1584774347192638
 20
-29.9618802153517
 30
0.0
  0
SPLINE
  5
5041
330
4FD6
100
AcDbEntity
  8
0
100
AcDbSpline
210
0.0
220
0.0
230
1.0
 70
     8
 71
     3
 72
     8
 73
     4
 74
     0
 42
0.000000001
 43
0.0000000001
 40
0.0165555802983502
 40
0.0165555802983502
 40
0.0165555802983502
 40
0.0165555802983502
 40
0.0552474385216232
 40
0.0552474385216232
 40
0.0552474385216232
 40
0.0552474385216232
 10
1.299999999999997
 20
-28.40265319967688
 30
0.0
 10
1.408693887323463
 20
-28.47169739903235
 30
0.0
 10
1.518078412107604
 20
-28.53987924822715
 30
0.0
 10
1.627773463812111
 20
-28.60755595259546
 30
0.0
  0
SPLINE
  5
5042
330
4FD6
100
AcDbEntity
  8
0
100
AcDbSpline
210
0.0
220
0.0
230
1.0
 70
     8
 71
     3
 72
     8
 73
     4
 74
     0
 42
0.000000001
 43
0.0000000001
 40
0.0
 40
0.0
 40
0.0
 40
0.0
 40
0.081531718287123
 40
0.081531718287123
 40
0.081531718287123
 40
0.081531718287123
 10
1.674123240204546
 20
-29.03387937094989
 30
0.0
 10
1.448077671920141
 20
-29.18290536052737
 30
0.0
 10
1.224334763355219
 20
-29.33554539943877
 30
0.0
 10
1.009841629638192
 20
-29.49496541571973
 30
0.0
  0
SPLINE
  5
5043
330
4FD6
100
AcDbEntity
  8
0
100
AcDbSpline
210
0.0
220
0.0
230
1.0
 70
     8
 71
     3
 72
    18
 73
    14
 74
     0
 42
0.000000001
 43
0.0000000001
 40
0.0679300628837173
 40
0.0679300628837173
 40
0.0679300628837173
 40
0.0679300628837173
 40
0.0841772035049307
 40
0.0841772035049307
 40
0.1245989267621
 40
0.1245989267621
 40
0.1639741273576343
 40
0.1639741273576343
 40
0.202365919962322
 40
0.202365919962322
 40
0.2398538914417407
 40
0.2398538914417407
 40
0.2660935576236768
 40
0.2660935576236768
 40
0.2660935576236768
 40
0.2660935576236768
 10
0.5623826490429292
 20
-51.18105777984448
 30
0.0
 10
0.5269381240802568
 20
-51.20933244519388
 30
0.0
 10
0.4890071109161579
 20
-51.23785982592565
 30
0.0
 10
0.3494135650693985
 20
-51.33867648366057
 30
0.0
 10
0.2396015017057358
 20
-51.41099692782312
 30
0.0
 10
0.019541618452949
 20
-51.55887438452161
 30
0.0
 10
-0.0875461050023985
 20
-51.63226999049124
 30
0.0
 10
-0.2788953475122307
 20
-51.78262502081206
 30
0.0
 10
-0.3608493818594086
 20
-51.85729195444432
 30
0.0
 10
-0.4845291891151796
 20
-52.01060189984183
 30
0.0
 10
-0.5252257933371287
 20
-52.08678925466362
 30
0.0
 10
-0.5540159618516631
 20
-52.22157420060248
 30
0.0
 10
-0.5539346749153395
 20
-52.27729514182467
 30
0.0
 10
-0.542339199373558
 20
-52.33430178279739
 30
0.0
  0
SPLINE
  5
5044
330
4FD6
100
AcDbEntity
  8
0
100
AcDbSpline
210
0.0
220
0.0
230
1.0
 70
     8
 71
     3
 72
    14
 73
    10
 74
     0
 42
0.000000001
 43
0.0000000001
 40
0.1219096538423546
 40
0.1219096538423546
 40
0.1219096538423546
 40
0.1219096538423546
 40
1.399546120906669
 40
1.399546120906669
 40
1.399546120906669
 40
2.680930343374184
 40
2.680930343374184
 40
2.680930343374184
 40
3.734724749806065
 40
3.734724749806065
 40
3.734724749806065
 40
3.734724749806065
 10
1.377664625642489
 20
-50.57044368406829
 30
0.0
 10
1.227601655044907
 20
-50.78056391524963
 30
0.0
 10
0.6862570116417534
 20
-50.99068414643099
 30
0.0
 10
0.1507090563112808
 20
-51.20080437761232
 30
0.0
 10
-0.386409848812034
 20
-51.41154096505151
 30
0.0
 10
-0.8713692861123995
 20
-51.6222775524907
 30
0.0
 10
-1.015211761713506
 20
-51.8330141399299
 30
0.0
 10
-1.133506020014789
 20
-52.00632128167566
 30
0.0
 10
-1.020978534470813
 20
-52.17962842342142
 30
0.0
 10
-0.7864374853407084
 20
-52.35293556516719
 30
0.0
  0
SPLINE
  5
5045
330
4FD6
100
AcDbEntity
  8
0
100
AcDbSpline
210
0.0
220
0.0
230
1.0
 70
     8
 71
     3
 72
    18
 73
    14
 74
     0
 42
0.000000001
 43
0.0000000001
 40
0.2945724974875283
 40
0.2945724974875283
 40
0.2945724974875283
 40
0.2945724974875283
 40
0.3146384564017793
 40
0.3146384564017793
 40
0.3573075434508828
 40
0.3573075434508828
 40
0.4010760595425625
 40
0.4010760595425625
 40
0.4459915586278461
 40
0.4459915586278461
 40
0.4777634970720052
 40
0.4777634970720052
 40
0.4902538628414252
 40
0.4902538628414252
 40
0.4902538628414252
 40
0.4902538628414252
 10
-0.4536725137796005
 20
-51.34106102659308
 30
0.0
 10
-0.4145707660933549
 20
-51.30401991160496
 30
0.0
 10
-0.3707893112604666
 20
-51.2673474498401
 30
0.0
 10
-0.2216572954133414
 20
-51.15300041049405
 30
0.0
 10
-0.10548973224549
 20
-51.07790562555138
 30
0.0
 10
0.1409662837786962
 20
-50.92659757999823
 30
0.0
 10
0.2680269583003032
 20
-50.85252305876811
 30
0.0
 10
0.5104276975653289
 20
-50.7032042169034
 30
0.0
 10
0.6220434237786151
 20
-50.63000269150037
 30
0.0
 10
0.7796976099872093
 20
-50.50563042811724
 30
0.0
 10
0.8343691429498536
 20
-50.45508161629151
 30
0.0
 10
0.8931733838457278
 20
-50.38510266766561
 30
0.0
 10
0.9077634663799049
 20
-50.36549925184015
 30
0.0
 10
0.9202993762258222
 20
-50.34599920224764
 30
0.0
  0
SPLINE
  5
5046
330
4FD6
100
AcDbEntity
  8
0
100
AcDbSpline
210
0.0
220
0.0
230
1.0
 70
     8
 71
     3
 72
    10
 73
     6
 74
     0
 42
0.000000001
 43
0.0000000001
 40
0.0391699244884972
 40
0.0391699244884972
 40
0.0391699244884972
 40
0.0391699244884972
 40
0.0444437155105313
 40
0.0444437155105313
 40
0.0775365040287713
 40
0.0775365040287713
 40
0.0775365040287713
 40
0.0775365040287713
 10
-0.4919804265281106
 20
-52.58183894740094
 30
0.0
 10
-0.5050340938199898
 20
-52.57096110372905
 30
0.0
 10
-0.5181819272605214
 20
-52.56015068433047
 30
0.0
 10
-0.6143685342966857
 20
-52.4819937007571
 30
0.0
 10
-0.7010538157999236
 20
-52.41667627410933
 30
0.0
 10
-0.789355534845499
 20
-52.3529355651672
 30
0.0
  0
SPLINE
  5
5047
330
4FD6
100
AcDbEntity
  8
0
100
AcDbSpline
210
0.0
220
0.0
230
1.0
 70
     8
 71
     3
 72
     8
 73
     4
 74
     0
 42
0.000000001
 43
0.0000000001
 40
0.0
 40
0.0
 40
0.0
 40
0.0
 40
0.0785353615715039
 40
0.0785353615715039
 40
0.0785353615715039
 40
0.0785353615715039
 10
1.195813771216628
 20
-50.73113401055517
 30
0.0
 10
0.9778290315126303
 20
-50.87440841284043
 30
0.0
 10
0.7613742027733932
 20
-51.02234810788226
 30
0.0
 10
0.5623870154902039
 20
-51.18106883132161
 30
0.0
  0
SPLINE
  5
5048
330
4FD6
100
AcDbEntity
  8
0
100
AcDbSpline
210
0.0
220
0.0
230
1.0
 70
     8
 71
     3
 72
     8
 73
     4
 74
     0
 42
0.000000001
 43
0.0000000001
 40
0.0
 40
0.0
 40
0.0
 40
0.0
 40
0.0561217333463663
 40
0.0561217333463663
 40
0.0561217333463663
 40
0.0561217333463663
 10
-0.8692918567386554
 20
-51.68794141801232
 30
0.0
 10
-0.7230606096940724
 20
-51.57718016448345
 30
0.0
 10
-0.581258297870928
 20
-51.46195139852711
 30
0.0
 10
-0.4536658196713069
 20
-51.341074141104
 30
0.0
  0
ENDBLK
  5
4FD8
330
4FD6
100
AcDbEntity
  8
0
100
AcDbBlockEnd
  0
BLOCK
  5
513D
330
513C
100
AcDbEntity
  8
0
100
AcDbBlockBegin
  2
DSIX442X55T-20-Top
 70
     0
 10
0.0
 20
0.0
 30
0.0
  3
DSIX442X55T-20-Top
  1

  0
LINE
  5
513F
330
513C
100
AcDbEntity
  8
0
100
AcDbLine
 10
2.224482758620691
 20
0.2123999999999977
 30
0.0
 11
2.803347158700586
 21
0.2123999999999983
 31
0.0
  0
LINE
  5
5140
330
513C
100
AcDbEntity
  8
0
100
AcDbLine
 10
2.224482758620691
 20
0.0923999999999976
 30
0.0
 11
2.224482758620691
 21
0.2123999999999977
 31
0.0
  0
LINE
  5
5141
330
513C
100
AcDbEntity
  8
0
100
AcDbLine
 10
2.734065130458713
 20
0.0923999999999987
 30
0.0
 11
2.224482758620691
 21
0.0923999999999976
 31
0.0
  0
LINE
  5
5142
330
513C
100
AcDbEntity
  8
0
100
AcDbLine
 10
2.627370806966226
 20
-0.0924000000000047
 30
0.0
 11
2.734065130458713
 21
0.0923999999999987
 31
0.0
  0
LINE
  5
5143
330
513C
100
AcDbEntity
  8
0
100
AcDbLine
 10
2.224482758620691
 20
-0.0924000000000051
 30
0.0
 11
2.627370806966226
 21
-0.0924000000000047
 31
0.0
  0
LINE
  5
5144
330
513C
100
AcDbEntity
  8
0
100
AcDbLine
 10
2.224482758620691
 20
-0.2124000000000052
 30
0.0
 11
2.224482758620691
 21
-0.0924000000000051
 31
0.0
  0
LINE
  5
5145
330
513C
100
AcDbEntity
  8
0
100
AcDbLine
 10
2.558088778724352
 20
-0.2124000000000044
 30
0.0
 11
2.224482758620691
 21
-0.2124000000000052
 31
0.0
  0
LINE
  5
5146
330
513C
100
AcDbEntity
  8
0
100
AcDbLine
 10
2.409003992252904
 20
-0.4706224399395012
 30
0.0
 11
2.558088778724352
 21
-0.2124000000000044
 31
0.0
  0
LINE
  5
5147
330
513C
100
AcDbEntity
  8
0
100
AcDbLine
 10
2.512927042229859
 20
-0.5306224373018767
 30
0.0
 11
2.409003992252904
 21
-0.4706224399395012
 31
0.0
  0
LINE
  5
5148
330
513C
100
AcDbEntity
  8
0
100
AcDbLine
 10
2.696652841299414
 20
-0.2124000000000042
 30
0.0
 11
2.512927042229859
 21
-0.5306224373018767
 31
0.0
  0
LINE
  5
5149
330
513C
100
AcDbEntity
  8
0
100
AcDbLine
 10
3.27551724137931
 20
-0.2124000000000036
 30
0.0
 11
2.696652841299414
 21
-0.2124000000000042
 31
0.0
  0
LINE
  5
514A
330
513C
100
AcDbEntity
  8
0
100
AcDbLine
 10
3.27551724137931
 20
-0.0924000000000035
 30
0.0
 11
3.27551724137931
 21
-0.2124000000000036
 31
0.0
  0
LINE
  5
514B
330
513C
100
AcDbEntity
  8
0
100
AcDbLine
 10
2.765934869541288
 20
-0.0924000000000046
 30
0.0
 11
3.27551724137931
 21
-0.0924000000000035
 31
0.0
  0
LINE
  5
514C
330
513C
100
AcDbEntity
  8
0
100
AcDbLine
 10
2.872629193033777
 20
0.0923999999999988
 30
0.0
 11
2.765934869541288
 21
-0.0924000000000046
 31
0.0
  0
LINE
  5
514D
330
513C
100
AcDbEntity
  8
0
100
AcDbLine
 10
3.27551724137931
 20
0.0923999999999992
 30
0.0
 11
2.872629193033777
 21
0.0923999999999988
 31
0.0
  0
LINE
  5
514E
330
513C
100
AcDbEntity
  8
0
100
AcDbLine
 10
3.27551724137931
 20
0.2123999999999993
 30
0.0
 11
3.27551724137931
 21
0.0923999999999992
 31
0.0
  0
LINE
  5
514F
330
513C
100
AcDbEntity
  8
0
100
AcDbLine
 10
2.941911221275652
 20
0.2123999999999985
 30
0.0
 11
3.27551724137931
 21
0.2123999999999993
 31
0.0
  0
LINE
  5
5150
330
513C
100
AcDbEntity
  8
0
100
AcDbLine
 10
3.090996007747102
 20
0.4706224399394965
 30
0.0
 11
2.941911221275652
 21
0.2123999999999985
 31
0.0
  0
LINE
  5
5151
330
513C
100
AcDbEntity
  8
0
100
AcDbLine
 10
2.987072957770142
 20
0.5306224373018776
 30
0.0
 11
3.090996007747102
 21
0.4706224399394965
 31
0.0
  0
LINE
  5
5152
330
513C
100
AcDbEntity
  8
0
100
AcDbLine
 10
2.803347158700586
 20
0.2123999999999983
 30
0.0
 11
2.987072957770142
 21
0.5306224373018776
 31
0.0
  0
LINE
  5
5153
330
513C
100
AcDbEntity
  8
0
100
AcDbLine
 10
-2.39100607296043
 20
-0.1086127979783138
 30
0.0
 11
-2.714176809483367
 21
-0.1086127979783134
 31
0.0
  0
LINE
  5
5154
330
513C
100
AcDbEntity
  8
0
100
AcDbLine
 10
-2.391006072960431
 20
-0.2938262153723549
 30
0.0
 11
-2.39100607296043
 21
-0.1086127979783138
 31
0.0
  0
SPLINE
  5
5155
330
513C
100
AcDbEntity
  8
0
100
AcDbSpline
210
0.0
220
0.0
230
1.0
 70
     8
 71
     2
 72
     7
 73
     4
 74
     0
 42
0.000000001
 43
0.0000000001
 40
0.0
 40
0.0
 40
0.0
 40
1.0
 40
2.0
 40
2.0
 40
2.0
 10
-2.711890224083441
 20
-0.3974847535023533
 30
0.0
 10
-2.617378027553148
 20
-0.3974847535023532
 30
0.0
 10
-2.437499976092269
 20
-0.3311737769044867
 30
0.0
 10
-2.391006072960431
 20
-0.293826215372355
 30
0.0
  0
SPLINE
  5
5156
330
513C
100
AcDbEntity
  8
0
100
AcDbSpline
210
0.0
220
0.0
230
1.0
 70
     8
 71
     2
 72
     8
 73
     5
 74
     0
 42
0.000000001
 43
0.0000000001
 40
0.0
 40
0.0
 40
0.0
 40
1.0
 40
2.0
 40
3.0
 40
3.0
 40
3.0
 10
-3.115091449603802
 20
0.0034298866180832
 30
0.0
 10
-3.115091449603802
 20
-0.1299542617109595
 30
0.0
 10
-3.01371949687373
 20
-0.3105945083051475
 30
0.0
 10
-2.820884128146601
 20
-0.3974847535023528
 30
0.0
 10
-2.711890224083441
 20
-0.3974847535023533
 30
0.0
  0
SPLINE
  5
5157
330
513C
100
AcDbEntity
  8
0
100
AcDbSpline
210
0.0
220
0.0
230
1.0
 70
     8
 71
     2
 72
     6
 73
     3
 74
     0
 42
0.000000001
 43
0.0000000001
 40
0.0
 40
0.0
 40
0.0
 40
1.0
 40
1.0
 40
1.0
 10
-3.073170717271817
 20
0.2046494018116096
 30
0.0
 10
-3.115091449603801
 20
0.111661595547935
 30
0.0
 10
-3.115091449603802
 20
0.0034298866180832
 30
0.0
  0
SPLINE
  5
5158
330
513C
100
AcDbEntity
  8
0
100
AcDbSpline
210
0.0
220
0.0
230
1.0
 70
     8
 71
     2
 72
     8
 73
     5
 74
     0
 42
0.000000001
 43
0.0000000001
 40
0.0
 40
0.0
 40
0.0
 40
1.0
 40
2.0
 40
3.0
 40
3.0
 40
3.0
 10
-2.714176809483365
 20
0.4035823316052085
 30
0.0
 10
-2.814024371946819
 20
0.4035823316052091
 30
0.0
 10
-2.958841447275494
 20
0.3487042820069753
 30
0.0
 10
-3.048018277872626
 20
0.2580030611432265
 30
0.0
 10
-3.073170717271817
 20
0.2046494018116096
 30
0.0
  0
SPLINE
  5
5159
330
513C
100
AcDbEntity
  8
0
100
AcDbSpline
210
0.0
220
0.0
230
1.0
 70
     8
 71
     2
 72
     8
 73
     5
 74
     0
 42
0.000000001
 43
0.0000000001
 40
0.0
 40
0.0
 40
0.0
 40
1.0
 40
2.0
 40
3.0
 40
3.0
 40
3.0
 10
-2.396341438893591
 20
0.1871189137455057
 30
0.0
 10
-2.420731683159473
 20
0.263338427076387
 30
0.0
 10
-2.494664611090428
 20
0.3509908674069004
 30
0.0
 10
-2.631097539952705
 20
0.4035823316052087
 30
0.0
 10
-2.714176809483365
 20
0.4035823316052085
 30
0.0
  0
LINE
  5
515A
330
513C
100
AcDbEntity
  8
0
100
AcDbLine
 10
-2.265243875964475
 20
0.2198933044777844
 30
0.0
 11
-2.396341438893591
 21
0.1871189137455057
 31
0.0
  0
SPLINE
  5
515B
330
513C
100
AcDbEntity
  8
0
100
AcDbSpline
210
0.0
220
0.0
230
1.0
 70
     8
 71
     2
 72
     8
 73
     5
 74
     0
 42
0.000000001
 43
0.0000000001
 40
0.0
 40
0.0
 40
0.0
 40
1.0
 40
2.0
 40
3.0
 40
3.0
 40
3.0
 10
-2.714939004616674
 20
0.5171494064682216
 30
0.0
 10
-2.59527436868719
 20
0.5171494064682216
 30
0.0
 10
-2.40320119509337
 20
0.4470274542038108
 30
0.0
 10
-2.293445095896901
 20
0.321265257207856
 30
0.0
 10
-2.265243875964475
 20
0.2198933044777844
 30
0.0
  0
SPLINE
  5
515C
330
513C
100
AcDbEntity
  8
0
100
AcDbSpline
210
0.0
220
0.0
230
1.0
 70
     8
 71
     2
 72
     8
 73
     5
 74
     0
 42
0.000000001
 43
0.0000000001
 40
0.0
 40
0.0
 40
0.0
 40
1.0
 40
2.0
 40
3.0
 40
3.0
 40
3.0
 10
-3.265243890865638
 20
-0.0049542598483133
 30
0.0
 10
-3.265243890865638
 20
0.1413872057469789
 30
0.0
 10
-3.131097547403285
 20
0.3944359900055039
 30
0.0
 10
-2.878810958278068
 20
0.5171494064682221
 30
0.0
 10
-2.714939004616674
 20
0.5171494064682216
 30
0.0
  0
SPLINE
  5
515D
330
513C
100
AcDbEntity
  8
0
100
AcDbSpline
210
0.0
220
0.0
230
1.0
 70
     8
 71
     2
 72
     8
 73
     5
 74
     0
 42
0.000000001
 43
0.0000000001
 40
0.0
 40
0.0
 40
0.0
 40
1.0
 40
2.0
 40
3.0
 40
3.0
 40
3.0
 10
-2.703506077617045
 20
-0.5171493894318368
 30
0.0
 10
-2.865853641011821
 20
-0.5171493894318362
 30
0.0
 10
-3.130335352269979
 20
-0.3906249973025727
 30
0.0
 10
-3.265243890865638
 20
-0.1520579205769141
 30
0.0
 10
-3.265243890865638
 20
-0.0049542598483133
 30
0.0
  0
SPLINE
  5
515E
330
513C
100
AcDbEntity
  8
0
100
AcDbSpline
210
0.0
220
0.0
230
1.0
 70
     8
 71
     2
 72
     7
 73
     4
 74
     0
 42
0.000000001
 43
0.0000000001
 40
0.0
 40
0.0
 40
0.0
 40
1.0
 40
2.0
 40
2.0
 40
2.0
 10
-2.248475583031683
 20
-0.3608993871035311
 30
0.0
 10
-2.355945096828226
 20
-0.4386432907010299
 30
0.0
 10
-2.583841441687561
 20
-0.5171493894318367
 30
0.0
 10
-2.703506077617045
 20
-0.5171493894318368
 30
0.0
  0
LINE
  5
515F
330
513C
100
AcDbEntity
  8
0
100
AcDbLine
 10
-2.248475583031682
 20
0.0095274476845523
 30
0.0
 11
-2.248475583031683
 21
-0.3608993871035311
 31
0.0
  0
LINE
  5
5160
330
513C
100
AcDbEntity
  8
0
100
AcDbLine
 10
-2.714176809483366
 20
0.0095274476845532
 30
0.0
 11
-2.248475583031682
 21
0.0095274476845523
 31
0.0
  0
LINE
  5
5161
330
513C
100
AcDbEntity
  8
0
100
AcDbLine
 10
-2.714176809483367
 20
-0.1086127979783134
 30
0.0
 11
-2.714176809483366
 21
0.0095274476845532
 31
0.0
  0
SPLINE
  5
5162
330
513C
100
AcDbEntity
  8
0
100
AcDbSpline
210
0.0
220
0.0
230
1.0
 70
     8
 71
     3
 72
    12
 73
     8
 74
     0
 42
0.000000001
 43
0.0000000001
 40
0.0701625880555413
 40
0.0701625880555413
 40
0.0701625880555413
 40
0.0701625880555413
 40
0.0876266719572695
 40
0.0876266719572695
 40
0.1050907558589977
 40
0.1050907558589977
 40
0.121349748553623
 40
0.121349748553623
 40
0.121349748553623
 40
0.121349748553623
 10
-1.710400172474266
 20
0.9874999999999987
 30
0.0
 10
-1.681293365971386
 20
1.037914467709063
 30
0.0
 10
-1.638865373917005
 20
1.084176439154848
 30
0.0
 10
-1.537687359965964
 20
1.152007246533187
 30
0.0
 10
-1.478938253707481
 20
1.173575309033163
 30
0.0
 10
-1.368340087023359
 20
1.188649165648808
 30
0.0
 10
-1.31093246180066
 20
1.184828025995694
 30
0.0
 10
-1.257017608299372
 20
1.168994388991213
 30
0.0
  0
SPLINE
  5
5163
330
513C
100
AcDbEntity
  8
0
100
AcDbSpline
210
0.0
220
0.0
230
1.0
 70
     8
 71
     3
 72
    18
 73
    14
 74
     0
 42
0.000000001
 43
0.0000000001
 40
0.028525742117437
 40
0.028525742117437
 40
0.028525742117437
 40
0.028525742117437
 40
0.0417123967319211
 40
0.0417123967319211
 40
0.0621425582382483
 40
0.0621425582382483
 40
0.0825727197445755
 40
0.0825727197445755
 40
0.1030028812509027
 40
0.1030028812509027
 40
0.1234330427572299
 40
0.1234330427572299
 40
0.1366196973717141
 40
0.1366196973717141
 40
0.1366196973717141
 40
0.1366196973717141
 10
-1.257017608299372
 20
1.168994388991213
 30
0.0
 10
-1.212572578662662
 20
1.155941836304516
 30
0.0
 10
-1.167442820982028
 20
1.14761349154439
 30
0.0
 10
-1.056846689319522
 20
1.137519885577465
 30
0.0
 10
-0.9830801185813067
 20
1.141273850507828
 30
0.0
 10
-0.8403966967678588
 20
1.172524294941498
 30
0.0
 10
-0.7714767962263278
 20
1.200035931215611
 30
0.0
 10
-0.6535232037736725
 20
1.268136469570035
 30
0.0
 10
-0.5952374775898474
 20
1.314067036128241
 30
0.0
 10
-0.4968320879240118
 20
1.422009281900743
 30
0.0
 10
-0.4566977735602935
 20
1.484016023644918
 30
0.0
 10
-0.4101410269121879
 20
1.5848418862084
 30
0.0
 10
-0.3947887062056151
 20
1.628089575206528
 30
0.0
 10
-0.383870033598174
 20
1.673106376287219
 30
0.0
  0
SPLINE
  5
5164
330
513C
100
AcDbEntity
  8
0
100
AcDbSpline
210
0.0
220
0.0
230
1.0
 70
     8
 71
     3
 72
    12
 73
     8
 74
     0
 42
0.000000001
 43
0.0000000001
 40
0.0189754275574595
 40
0.0189754275574595
 40
0.0189754275574595
 40
0.0189754275574595
 40
0.0352344202520848
 40
0.0352344202520848
 40
0.052698504153813
 40
0.052698504153813
 40
0.0701625880555413
 40
0.0701625880555413
 40
0.0701625880555413
 40
0.0701625880555413
 10
-0.383870033598174
 20
1.673106376287219
 30
0.0
 10
-0.3706249387277127
 20
1.727714827562892
 30
0.0
 10
-0.345230330127368
 20
1.779341859203242
 30
0.0
 10
-0.2768769040231538
 20
1.867585752855856
 30
0.0
 10
-0.2288238608585237
 20
1.907679940075345
 30
0.0
 10
-0.1194916515341528
 20
1.961387266772234
 30
0.0
 10
-0.0582136130057617
 20
1.974999999999999
 30
0.0
 10
-0.0000000000000009
 20
1.974999999999999
 30
0.0
  0
SPLINE
  5
5165
330
513C
100
AcDbEntity
  8
0
100
AcDbSpline
210
0.0
220
0.0
230
1.0
 70
     8
 71
     3
 72
    12
 73
     8
 74
     0
 42
0.000000001
 43
0.0000000001
 40
0.0701625880555413
 40
0.0701625880555413
 40
0.0701625880555413
 40
0.0701625880555413
 40
0.0876266719572696
 40
0.0876266719572696
 40
0.1050907558589978
 40
0.1050907558589978
 40
0.1213497485536232
 40
0.1213497485536232
 40
0.1213497485536232
 40
0.1213497485536232
 10
-1.710400172474266
 20
-0.9875000000000014
 30
0.0
 10
-1.739506978977146
 20
-0.9370855322909363
 30
0.0
 10
-1.758357025451156
 20
-0.8772108276173852
 30
0.0
 10
-1.766511220824486
 20
-0.7556726935421578
 30
0.0
 10
-1.755815157730634
 20
-0.6940104438226933
 30
0.0
 10
-1.713570417150726
 20
-0.5906926935544341
 30
0.0
 10
-1.681557400528371
 20
-0.5428868015671979
 30
0.0
 10
-1.640887641897545
 20
-0.5041119872960073
 30
0.0
  0
SPLINE
  5
5166
330
513C
100
AcDbEntity
  8
0
100
AcDbSpline
210
0.0
220
0.0
230
1.0
 70
     8
 71
     3
 72
    18
 73
    14
 74
     0
 42
0.000000001
 43
0.0000000001
 40
0.028525742117437
 40
0.028525742117437
 40
0.028525742117437
 40
0.028525742117437
 40
0.0417123967319211
 40
0.0417123967319211
 40
0.0621425582382483
 40
0.0621425582382483
 40
0.0825727197445755
 40
0.0825727197445755
 40
0.1030028812509027
 40
0.1030028812509027
 40
0.1234330427572299
 40
0.1234330427572299
 40
0.136619697371714
 40
0.136619697371714
 40
0.136619697371714
 40
0.136619697371714
 10
-1.640887641897545
 20
-0.5041119872960073
 30
0.0
 10
-1.607361284868276
 20
-0.4721477389020121
 30
0.0
 10
-1.577583847894215
 20
-0.43722839466401
 30
0.0
 10
-1.513544462879814
 20
-0.3464961380674539
 30
0.0
 10
-1.479912206505317
 20
-0.2807354313929158
 30
0.0
 10
-1.435634174357704
 20
-0.1415427411867444
 30
0.0
 10
-1.424999999999999
 20
-0.0681005383544251
 30
0.0
 10
-1.424999999999999
 20
0.0681005383544231
 30
0.0
 10
-1.435634174357705
 20
0.1415427411867427
 30
0.0
 10
-1.479912206505317
 20
0.280735431392914
 30
0.0
 10
-1.513544462879814
 20
0.3464961380674517
 30
0.0
 10
-1.577583847894215
 20
0.4372283946640079
 30
0.0
 10
-1.607361284868276
 20
0.4721477389020097
 30
0.0
 10
-1.640887641897545
 20
0.504111987296005
 30
0.0
  0
SPLINE
  5
5167
330
513C
100
AcDbEntity
  8
0
100
AcDbSpline
210
0.0
220
0.0
230
1.0
 70
     8
 71
     3
 72
    12
 73
     8
 74
     0
 42
0.000000001
 43
0.0000000001
 40
0.0189754275574595
 40
0.0189754275574595
 40
0.0189754275574595
 40
0.0189754275574595
 40
0.0352344202520848
 40
0.0352344202520848
 40
0.052698504153813
 40
0.052698504153813
 40
0.0701625880555413
 40
0.0701625880555413
 40
0.0701625880555413
 40
0.0701625880555413
 10
-1.640887641897545
 20
0.504111987296005
 30
0.0
 10
-1.681557400528371
 20
0.5428868015671954
 30
0.0
 10
-1.713570417150725
 20
0.5906926935544323
 30
0.0
 10
-1.755815157730634
 20
0.6940104438226907
 30
0.0
 10
-1.766511220824486
 20
0.755672693542155
 30
0.0
 10
-1.758357025451157
 20
0.8772108276173822
 30
0.0
 10
-1.739506978977147
 20
0.9370855322909337
 30
0.0
 10
-1.710400172474266
 20
0.9874999999999987
 30
0.0
  0
SPLINE
  5
5168
330
513C
100
AcDbEntity
  8
0
100
AcDbSpline
210
0.0
220
0.0
230
1.0
 70
     8
 71
     3
 72
    12
 73
     8
 74
     0
 42
0.000000001
 43
0.0000000001
 40
0.0701625880555411
 40
0.0701625880555411
 40
0.0701625880555411
 40
0.0701625880555411
 40
0.0876266719572693
 40
0.0876266719572693
 40
0.1050907558589975
 40
0.1050907558589975
 40
0.1213497485536227
 40
0.1213497485536227
 40
0.1213497485536227
 40
0.1213497485536227
 10
0.0000000000000008
 20
-1.974999999999998
 30
0.0
 10
-0.0582136130057599
 20
-1.974999999999998
 30
0.0
 10
-0.1194916515341506
 20
-1.961387266772233
 30
0.0
 10
-0.2288238608585213
 20
-1.907679940075344
 30
0.0
 10
-0.2768769040231517
 20
-1.867585752855855
 30
0.0
 10
-0.3452303301273658
 20
-1.779341859203241
 30
0.0
 10
-0.3706249387277116
 20
-1.727714827562891
 30
0.0
 10
-0.3838700335981731
 20
-1.67310637628722
 30
0.0
  0
SPLINE
  5
5169
330
513C
100
AcDbEntity
  8
0
100
AcDbSpline
210
0.0
220
0.0
230
1.0
 70
     8
 71
     3
 72
    18
 73
    14
 74
     0
 42
0.000000001
 43
0.0000000001
 40
0.028525742117437
 40
0.028525742117437
 40
0.028525742117437
 40
0.028525742117437
 40
0.041712396731921
 40
0.041712396731921
 40
0.0621425582382483
 40
0.0621425582382483
 40
0.0825727197445755
 40
0.0825727197445755
 40
0.1030028812509027
 40
0.1030028812509027
 40
0.1234330427572299
 40
0.1234330427572299
 40
0.136619697371714
 40
0.136619697371714
 40
0.136619697371714
 40
0.136619697371714
 10
-0.3838700335981731
 20
-1.67310637628722
 30
0.0
 10
-0.3947887062056141
 20
-1.628089575206528
 30
0.0
 10
-0.4101410269121868
 20
-1.584841886208401
 30
0.0
 10
-0.4566977735602923
 20
-1.484016023644919
 30
0.0
 10
-0.4968320879240105
 20
-1.422009281900744
 30
0.0
 10
-0.5952374775898463
 20
-1.314067036128242
 30
0.0
 10
-0.6535232037736716
 20
-1.268136469570037
 30
0.0
 10
-0.771476796226327
 20
-1.200035931215613
 30
0.0
 10
-0.8403966967678575
 20
-1.172524294941499
 30
0.0
 10
-0.983080118581306
 20
-1.14127385050783
 30
0.0
 10
-1.056846689319521
 20
-1.137519885577466
 30
0.0
 10
-1.167442820982027
 20
-1.147613491544392
 30
0.0
 10
-1.212572578662661
 20
-1.155941836304518
 30
0.0
 10
-1.257017608299372
 20
-1.168994388991214
 30
0.0
  0
SPLINE
  5
516A
330
513C
100
AcDbEntity
  8
0
100
AcDbSpline
210
0.0
220
0.0
230
1.0
 70
     8
 71
     3
 72
    12
 73
     8
 74
     0
 42
0.000000001
 43
0.0000000001
 40
0.0189754275574596
 40
0.0189754275574596
 40
0.0189754275574596
 40
0.0189754275574596
 40
0.0352344202520849
 40
0.0352344202520849
 40
0.0526985041538131
 40
0.0526985041538131
 40
0.0701625880555413
 40
0.0701625880555413
 40
0.0701625880555413
 40
0.0701625880555413
 10
-1.257017608299372
 20
-1.168994388991214
 30
0.0
 10
-1.310932461800659
 20
-1.184828025995696
 30
0.0
 10
-1.368340087023358
 20
-1.188649165648811
 30
0.0
 10
-1.478938253707481
 20
-1.173575309033165
 30
0.0
 10
-1.537687359965963
 20
-1.15200724653319
 30
0.0
 10
-1.638865373917004
 20
-1.084176439154851
 30
0.0
 10
-1.681293365971385
 20
-1.037914467709066
 30
0.0
 10
-1.710400172474266
 20
-0.9875000000000014
 30
0.0
  0
SPLINE
  5
516B
330
513C
100
AcDbEntity
  8
0
100
AcDbSpline
210
0.0
220
0.0
230
1.0
 70
     8
 71
     3
 72
    12
 73
     8
 74
     0
 42
0.000000001
 43
0.0000000001
 40
0.0189754275574595
 40
0.0189754275574595
 40
0.0189754275574595
 40
0.0189754275574595
 40
0.0352344202520847
 40
0.0352344202520847
 40
0.0526985041538129
 40
0.0526985041538129
 40
0.0701625880555411
 40
0.0701625880555411
 40
0.0701625880555411
 40
0.0701625880555411
 10
0.3838700335981744
 20
-1.673106376287219
 30
0.0
 10
0.3706249387277131
 20
-1.727714827562891
 30
0.0
 10
0.3452303301273673
 20
-1.779341859203242
 30
0.0
 10
0.2768769040231533
 20
-1.867585752855855
 30
0.0
 10
0.2288238608585231
 20
-1.907679940075344
 30
0.0
 10
0.1194916515341524
 20
-1.961387266772233
 30
0.0
 10
0.0582136130057615
 20
-1.974999999999998
 30
0.0
 10
0.0000000000000008
 20
-1.974999999999998
 30
0.0
  0
SPLINE
  5
516C
330
513C
100
AcDbEntity
  8
0
100
AcDbSpline
210
0.0
220
0.0
230
1.0
 70
     8
 71
     3
 72
    12
 73
     8
 74
     0
 42
0.000000001
 43
0.0000000001
 40
0.0701625880555416
 40
0.0701625880555416
 40
0.0701625880555416
 40
0.0701625880555416
 40
0.0876266719572699
 40
0.0876266719572699
 40
0.1050907558589983
 40
0.1050907558589983
 40
0.1213497485536236
 40
0.1213497485536236
 40
0.1213497485536236
 40
0.1213497485536236
 10
1.710400172474269
 20
-0.9875000000000007
 30
0.0
 10
1.681293365971388
 20
-1.037914467709066
 30
0.0
 10
1.638865373917007
 20
-1.084176439154851
 30
0.0
 10
1.537687359965965
 20
-1.15200724653319
 30
0.0
 10
1.478938253707482
 20
-1.173575309033166
 30
0.0
 10
1.368340087023359
 20
-1.188649165648811
 30
0.0
 10
1.310932461800661
 20
-1.184828025995695
 30
0.0
 10
1.257017608299373
 20
-1.168994388991213
 30
0.0
  0
SPLINE
  5
516D
330
513C
100
AcDbEntity
  8
0
100
AcDbSpline
210
0.0
220
0.0
230
1.0
 70
     8
 71
     3
 72
    18
 73
    14
 74
     0
 42
0.000000001
 43
0.0000000001
 40
0.0285257421174369
 40
0.0285257421174369
 40
0.0285257421174369
 40
0.0285257421174369
 40
0.0417123967319211
 40
0.0417123967319211
 40
0.0621425582382483
 40
0.0621425582382483
 40
0.0825727197445755
 40
0.0825727197445755
 40
0.1030028812509027
 40
0.1030028812509027
 40
0.1234330427572299
 40
0.1234330427572299
 40
0.1366196973717139
 40
0.1366196973717139
 40
0.1366196973717139
 40
0.1366196973717139
 10
1.257017608299373
 20
-1.168994388991213
 30
0.0
 10
1.212572578662662
 20
-1.155941836304517
 30
0.0
 10
1.167442820982028
 20
-1.147613491544391
 30
0.0
 10
1.056846689319522
 20
-1.137519885577466
 30
0.0
 10
0.983080118581307
 20
-1.141273850507829
 30
0.0
 10
0.8403966967678588
 20
-1.172524294941498
 30
0.0
 10
0.7714767962263281
 20
-1.200035931215612
 30
0.0
 10
0.6535232037736727
 20
-1.268136469570036
 30
0.0
 10
0.5952374775898474
 20
-1.314067036128242
 30
0.0
 10
0.4968320879240117
 20
-1.422009281900744
 30
0.0
 10
0.4566977735602939
 20
-1.484016023644919
 30
0.0
 10
0.4101410269121882
 20
-1.5848418862084
 30
0.0
 10
0.3947887062056155
 20
-1.628089575206528
 30
0.0
 10
0.3838700335981744
 20
-1.673106376287219
 30
0.0
  0
SPLINE
  5
516E
330
513C
100
AcDbEntity
  8
0
100
AcDbSpline
210
0.0
220
0.0
230
1.0
 70
     8
 71
     3
 72
    12
 73
     8
 74
     0
 42
0.000000001
 43
0.0000000001
 40
0.0189754275574596
 40
0.0189754275574596
 40
0.0189754275574596
 40
0.0189754275574596
 40
0.035234420252085
 40
0.035234420252085
 40
0.0526985041538133
 40
0.0526985041538133
 40
0.0701625880555416
 40
0.0701625880555416
 40
0.0701625880555416
 40
0.0701625880555416
 10
1.640887641897545
 20
-0.5041119872960067
 30
0.0
 10
1.681557400528371
 20
-0.5428868015671974
 30
0.0
 10
1.713570417150727
 20
-0.5906926935544323
 30
0.0
 10
1.755815157730637
 20
-0.6940104438226915
 30
0.0
 10
1.766511220824488
 20
-0.755672693542156
 30
0.0
 10
1.758357025451159
 20
-0.877210827617384
 30
0.0
 10
1.739506978977149
 20
-0.9370855322909354
 30
0.0
 10
1.710400172474269
 20
-0.9875000000000007
 30
0.0
  0
SPLINE
  5
516F
330
513C
100
AcDbEntity
  8
0
100
AcDbSpline
210
0.0
220
0.0
230
1.0
 70
     8
 71
     3
 72
    12
 73
     8
 74
     0
 42
0.000000001
 43
0.0000000001
 40
0.0701625880555412
 40
0.0701625880555412
 40
0.0701625880555412
 40
0.0701625880555412
 40
0.0876266719572695
 40
0.0876266719572695
 40
0.1050907558589977
 40
0.1050907558589977
 40
0.121349748553623
 40
0.121349748553623
 40
0.121349748553623
 40
0.121349748553623
 10
1.710400172474265
 20
0.9874999999999996
 30
0.0
 10
1.739506978977145
 20
0.9370855322909347
 30
0.0
 10
1.758357025451155
 20
0.8772108276173838
 30
0.0
 10
1.766511220824484
 20
0.7556726935421566
 30
0.0
 10
1.755815157730633
 20
0.694010443822692
 30
0.0
 10
1.713570417150725
 20
0.5906926935544333
 30
0.0
 10
1.681557400528371
 20
0.5428868015671956
 30
0.0
 10
1.640887641897545
 20
0.5041119872960053
 30
0.0
  0
SPLINE
  5
5170
330
513C
100
AcDbEntity
  8
0
100
AcDbSpline
210
0.0
220
0.0
230
1.0
 70
     8
 71
     3
 72
    18
 73
    14
 74
     0
 42
0.000000001
 43
0.0000000001
 40
0.028525742117437
 40
0.028525742117437
 40
0.028525742117437
 40
0.028525742117437
 40
0.0417123967319209
 40
0.0417123967319209
 40
0.062142558238248
 40
0.062142558238248
 40
0.0825727197445751
 40
0.0825727197445751
 40
0.1030028812509022
 40
0.1030028812509022
 40
0.1234330427572293
 40
0.1234330427572293
 40
0.1366196973717132
 40
0.1366196973717132
 40
0.1366196973717132
 40
0.1366196973717132
 10
1.640887641897545
 20
0.5041119872960053
 30
0.0
 10
1.607361284868276
 20
0.4721477389020105
 30
0.0
 10
1.577583847894219
 20
0.4372283946640058
 30
0.0
 10
1.513544462879819
 20
0.3464961380674505
 30
0.0
 10
1.479912206505321
 20
0.2807354313929129
 30
0.0
 10
1.435634174357709
 20
0.1415427411867423
 30
0.0
 10
1.425000000000004
 20
0.0681005383544231
 30
0.0
 10
1.425000000000004
 20
-0.0681005383544244
 30
0.0
 10
1.435634174357709
 20
-0.1415427411867434
 30
0.0
 10
1.479912206505321
 20
-0.2807354313929142
 30
0.0
 10
1.513544462879819
 20
-0.3464961380674516
 30
0.0
 10
1.577583847894219
 20
-0.4372283946640069
 30
0.0
 10
1.607361284868276
 20
-0.4721477389020118
 30
0.0
 10
1.640887641897545
 20
-0.5041119872960067
 30
0.0
  0
SPLINE
  5
5171
330
513C
100
AcDbEntity
  8
0
100
AcDbSpline
210
0.0
220
0.0
230
1.0
 70
     8
 71
     3
 72
    12
 73
     8
 74
     0
 42
0.000000001
 43
0.0000000001
 40
0.0189754275574595
 40
0.0189754275574595
 40
0.0189754275574595
 40
0.0189754275574595
 40
0.0352344202520848
 40
0.0352344202520848
 40
0.052698504153813
 40
0.052698504153813
 40
0.0701625880555412
 40
0.0701625880555412
 40
0.0701625880555412
 40
0.0701625880555412
 10
1.257017608299371
 20
1.168994388991214
 30
0.0
 10
1.310932461800658
 20
1.184828025995695
 30
0.0
 10
1.368340087023357
 20
1.188649165648809
 30
0.0
 10
1.47893825370748
 20
1.173575309033163
 30
0.0
 10
1.537687359965961
 20
1.152007246533188
 30
0.0
 10
1.638865373917003
 20
1.08417643915485
 30
0.0
 10
1.681293365971384
 20
1.037914467709064
 30
0.0
 10
1.710400172474265
 20
0.9874999999999996
 30
0.0
  0
SPLINE
  5
5172
330
513C
100
AcDbEntity
  8
0
100
AcDbSpline
210
0.0
220
0.0
230
1.0
 70
     8
 71
     3
 72
    12
 73
     8
 74
     0
 42
0.000000001
 43
0.0000000001
 40
0.0701625880555413
 40
0.0701625880555413
 40
0.0701625880555413
 40
0.0701625880555413
 40
0.0876266719572695
 40
0.0876266719572695
 40
0.1050907558589977
 40
0.1050907558589977
 40
0.121349748553623
 40
0.121349748553623
 40
0.121349748553623
 40
0.121349748553623
 10
-0.0000000000000009
 20
1.974999999999999
 30
0.0
 10
0.0582136130057599
 20
1.974999999999999
 30
0.0
 10
0.119491651534151
 20
1.961387266772234
 30
0.0
 10
0.2288238608585219
 20
1.907679940075345
 30
0.0
 10
0.2768769040231522
 20
1.867585752855856
 30
0.0
 10
0.3452303301273663
 20
1.779341859203243
 30
0.0
 10
0.3706249387277112
 20
1.727714827562891
 30
0.0
 10
0.3838700335981727
 20
1.67310637628722
 30
0.0
  0
SPLINE
  5
5173
330
513C
100
AcDbEntity
  8
0
100
AcDbSpline
210
0.0
220
0.0
230
1.0
 70
     8
 71
     3
 72
    18
 73
    14
 74
     0
 42
0.000000001
 43
0.0000000001
 40
0.028525742117437
 40
0.028525742117437
 40
0.028525742117437
 40
0.028525742117437
 40
0.0417123967319211
 40
0.0417123967319211
 40
0.0621425582382483
 40
0.0621425582382483
 40
0.0825727197445755
 40
0.0825727197445755
 40
0.1030028812509027
 40
0.1030028812509027
 40
0.1234330427572299
 40
0.1234330427572299
 40
0.1366196973717139
 40
0.1366196973717139
 40
0.1366196973717139
 40
0.1366196973717139
 10
0.3838700335981727
 20
1.67310637628722
 30
0.0
 10
0.3947887062056138
 20
1.628089575206528
 30
0.0
 10
0.4101410269121869
 20
1.5848418862084
 30
0.0
 10
0.4566977735602924
 20
1.484016023644919
 30
0.0
 10
0.4968320879240105
 20
1.422009281900744
 30
0.0
 10
0.5952374775898464
 20
1.314067036128241
 30
0.0
 10
0.6535232037736716
 20
1.268136469570036
 30
0.0
 10
0.771476796226327
 20
1.200035931215612
 30
0.0
 10
0.8403966967678579
 20
1.172524294941498
 30
0.0
 10
0.9830801185813061
 20
1.141273850507829
 30
0.0
 10
1.056846689319521
 20
1.137519885577466
 30
0.0
 10
1.167442820982027
 20
1.147613491544391
 30
0.0
 10
1.21257257866266
 20
1.155941836304517
 30
0.0
 10
1.257017608299371
 20
1.168994388991214
 30
0.0
  0
CIRCLE
  5
5174
330
513C
100
AcDbEntity
  8
0
100
AcDbCircle
 10
0.0
 20
-0.0000000000000003
 30
0.0
 40
1.974999999999999
  0
CIRCLE
  5
5175
330
513C
100
AcDbEntity
  8
0
100
AcDbCircle
 10
0.0
 20
-0.0000000000000003
 30
0.0
 40
3.5
  0
ENDBLK
  5
513E
330
513C
100
AcDbEntity
  8
0
100
AcDbBlockEnd
  0
BLOCK
  5
51EA
330
51E9
100
AcDbEntity
  8
0
100
AcDbBlockBegin
  2
DSIX442X55T-20-ISO
 70
     0
 10
0.0
 20
0.0
 30
0.0
  3
DSIX442X55T-20-ISO
  1

  0
LINE
  5
51EC
330
51E9
100
AcDbEntity
  8
0
100
AcDbLine
 10
1.723136323577271
 20
21.63323036786218
 30
0.0
 11
2.132455266261247
 21
21.39690996611918
 31
0.0
  0
LINE
  5
51ED
330
51E9
100
AcDbEntity
  8
0
100
AcDbLine
 10
1.723136323577271
 20
21.63323036786218
 30
0.0
 11
1.723136323577271
 21
21.53525077815086
 31
0.0
  0
LINE
  5
51EE
330
51E9
100
AcDbEntity
  8
0
100
AcDbLine
 10
1.998612660534675
 20
21.37048896478663
 30
0.0
 11
2.08878476347621
 21
21.31842807687994
 31
0.0
  0
LINE
  5
51EF
330
51E9
100
AcDbEntity
  8
0
100
AcDbLine
 10
2.132455266261247
 20
21.39690996611918
 30
0.0
 11
2.132455266261247
 21
21.29893037640784
 31
0.0
  0
LINE
  5
51F0
330
51E9
100
AcDbEntity
  8
0
100
AcDbLine
 10
1.638283509834885
 20
21.58424057300651
 30
0.0
 11
1.723136323577271
 21
21.63323036786218
 31
0.0
  0
LINE
  5
51F1
330
51E9
100
AcDbEntity
  8
0
100
AcDbLine
 10
1.998612660534675
 20
21.37620444085312
 30
0.0
 11
1.638283509834885
 21
21.58424057300651
 31
0.0
  0
LINE
  5
51F2
330
51E9
100
AcDbEntity
  8
0
100
AcDbLine
 10
1.998612660534675
 20
21.37620444085312
 30
0.0
 11
1.998612660534675
 21
21.3044784025919
 31
0.0
  0
LINE
  5
51F3
330
51E9
100
AcDbEntity
  8
0
100
AcDbLine
 10
1.792495047715751
 20
21.34431793194341
 30
0.0
 11
1.998612660534675
 21
21.37620444085312
 31
0.0
  0
LINE
  5
51F4
330
51E9
100
AcDbEntity
  8
0
100
AcDbLine
 10
1.792495047715751
 20
21.34431793194341
 30
0.0
 11
1.792495047715751
 21
21.24633834223208
 31
0.0
  0
LINE
  5
51F5
330
51E9
100
AcDbEntity
  8
0
100
AcDbLine
 10
1.800302533049802
 20
21.24183068847277
 30
0.0
 11
1.890474635991335
 21
21.25578036276081
 31
0.0
  0
LINE
  5
51F6
330
51E9
100
AcDbEntity
  8
0
100
AcDbLine
 10
1.507610176671609
 20
21.50879628892879
 30
0.0
 11
1.792495047715751
 21
21.34431793194341
 31
0.0
  0
LINE
  5
51F7
330
51E9
100
AcDbEntity
  8
0
100
AcDbLine
 10
1.507610176671609
 20
21.50879628892879
 30
0.0
 11
1.507610176671609
 21
21.41081669921746
 31
0.0
  0
LINE
  5
51F8
330
51E9
100
AcDbEntity
  8
0
100
AcDbLine
 10
1.658652441989179
 20
21.31789693061087
 30
0.0
 11
1.748824544930711
 21
21.26583604270417
 31
0.0
  0
LINE
  5
51F9
330
51E9
100
AcDbEntity
  8
0
100
AcDbLine
 10
1.422757362929224
 20
21.45980649407313
 30
0.0
 11
1.507610176671609
 21
21.50879628892879
 31
0.0
  0
LINE
  5
51FA
330
51E9
100
AcDbEntity
  8
0
100
AcDbLine
 10
1.658652441989179
 20
21.32361240667735
 30
0.0
 11
1.422757362929224
 21
21.45980649407313
 31
0.0
  0
LINE
  5
51FB
330
51E9
100
AcDbEntity
  8
0
100
AcDbLine
 10
1.658652441989179
 20
21.32361240667735
 30
0.0
 11
1.658652441989179
 21
21.25188636841613
 31
0.0
  0
LINE
  5
51FC
330
51E9
100
AcDbEntity
  8
0
100
AcDbLine
 10
1.370642740167715
 20
21.27905714622379
 30
0.0
 11
1.658652441989179
 21
21.32361240667735
 31
0.0
  0
LINE
  5
51FD
330
51E9
100
AcDbEntity
  8
0
100
AcDbLine
 10
1.401701028521898
 20
21.21213584237988
 30
0.0
 11
1.370642740167715
 21
21.27905714622379
 31
0.0
  0
LINE
  5
51FE
330
51E9
100
AcDbEntity
  8
0
100
AcDbLine
 10
1.756632030264762
 20
21.26704386501136
 30
0.0
 11
1.401701028521898
 21
21.21213584237988
 31
0.0
  0
LINE
  5
51FF
330
51E9
100
AcDbEntity
  8
0
100
AcDbLine
 10
2.16595097294874
 20
21.03072346326835
 30
0.0
 11
1.756632030264762
 21
21.26704386501136
 31
0.0
  0
LINE
  5
5200
330
51E9
100
AcDbEntity
  8
0
100
AcDbLine
 10
2.250803786691125
 20
21.07971325812401
 30
0.0
 11
2.16595097294874
 21
21.03072346326835
 31
0.0
  0
LINE
  5
5201
330
51E9
100
AcDbEntity
  8
0
100
AcDbLine
 10
1.890474635991335
 20
21.28774939027741
 30
0.0
 11
2.250803786691125
 21
21.07971325812401
 31
0.0
  0
LINE
  5
5202
330
51E9
100
AcDbEntity
  8
0
100
AcDbLine
 10
1.890474635991335
 20
21.28774939027741
 30
0.0
 11
1.890474635991335
 21
21.18976980056608
 31
0.0
  0
LINE
  5
5203
330
51E9
100
AcDbEntity
  8
0
100
AcDbLine
 10
2.096592248810261
 20
21.31963589918712
 30
0.0
 11
1.890474635991335
 21
21.28774939027741
 31
0.0
  0
LINE
  5
5204
330
51E9
100
AcDbEntity
  8
0
100
AcDbLine
 10
2.381477119854401
 20
21.15515754220174
 30
0.0
 11
2.096592248810261
 21
21.31963589918712
 31
0.0
  0
LINE
  5
5205
330
51E9
100
AcDbEntity
  8
0
100
AcDbLine
 10
2.466329933596787
 20
21.2041473370574
 30
0.0
 11
2.381477119854401
 21
21.15515754220174
 31
0.0
  0
LINE
  5
5206
330
51E9
100
AcDbEntity
  8
0
100
AcDbLine
 10
2.230434854536834
 20
21.34034142445317
 30
0.0
 11
2.466329933596787
 21
21.2041473370574
 31
0.0
  0
LINE
  5
5207
330
51E9
100
AcDbEntity
  8
0
100
AcDbLine
 10
2.230434854536834
 20
21.34034142445317
 30
0.0
 11
2.230434854536834
 21
21.24236183474184
 31
0.0
  0
LINE
  5
5208
330
51E9
100
AcDbEntity
  8
0
100
AcDbLine
 10
2.518444556358299
 20
21.38489668490674
 30
0.0
 11
2.230434854536834
 21
21.34034142445317
 31
0.0
  0
LINE
  5
5209
330
51E9
100
AcDbEntity
  8
0
100
AcDbLine
 10
2.487386268004118
 20
21.45181798875065
 30
0.0
 11
2.518444556358299
 21
21.38489668490674
 31
0.0
  0
LINE
  5
520A
330
51E9
100
AcDbEntity
  8
0
100
AcDbLine
 10
2.487386268004118
 20
21.45181798875065
 30
0.0
 11
2.487386268004118
 21
21.38009195048943
 31
0.0
  0
LINE
  5
520B
330
51E9
100
AcDbEntity
  8
0
100
AcDbLine
 10
2.132455266261247
 20
21.39690996611918
 30
0.0
 11
2.487386268004118
 21
21.45181798875065
 31
0.0
  0
LINE
  5
520C
330
51E9
100
AcDbEntity
  8
0
100
AcDbLine
 10
2.140262751595299
 20
21.29442272264854
 30
0.0
 11
2.230434854536834
 21
21.30837239693658
 31
0.0
  0
LINE
  5
520D
330
51E9
100
AcDbEntity
  8
0
100
AcDbLine
 10
-1.767497454022646
 20
23.38644286701855
 30
0.0
 11
-1.996013673299065
 21
23.51837676773199
 31
0.0
  0
LINE
  5
520E
330
51E9
100
AcDbEntity
  8
0
100
AcDbLine
 10
-1.767497454022646
 20
23.38644286701855
 30
0.0
 11
-1.767497454022646
 21
23.28274780124074
 31
0.0
  0
LINE
  5
520F
330
51E9
100
AcDbEntity
  8
0
100
AcDbLine
 10
-1.898463117428708
 20
23.31082980599647
 30
0.0
 11
-1.767497454022646
 21
23.38644286701855
 31
0.0
  0
LINE
  5
5210
330
51E9
100
AcDbEntity
  8
0
100
AcDbLine
 10
-1.898463117428708
 20
23.31082980599647
 30
0.0
 11
-1.898463117428708
 21
23.23108363731026
 31
0.0
  0
LINE
  5
5211
330
51E9
100
AcDbEntity
  8
0
100
AcDbLine
 10
-1.863873962579095
 20
23.22710479808212
 30
0.0
 11
-1.767497454022646
 21
23.28274780124074
 31
0.0
  0
SPLINE
  5
5212
330
51E9
100
AcDbEntity
  8
0
100
AcDbSpline
210
0.0
220
0.0
230
1.0
 70
     8
 71
     2
 72
     7
 73
     4
 74
     0
 42
0.000000001
 43
0.0000000001
 40
0.0
 40
0.0
 40
0.0
 40
1.0
 40
2.0
 40
2.0
 40
2.0
 10
-2.198660131902683
 20
23.39951179114583
 30
0.0
 10
-2.131829916831277
 20
23.36092734848436
 30
0.0
 10
-1.957747985637212
 20
23.31456378431855
 30
0.0
 10
-1.898463117428708
 20
23.31082980599647
 30
0.0
  0
LINE
  5
5213
330
51E9
100
AcDbEntity
  8
0
100
AcDbLine
 10
-2.198660131902684
 20
23.39951179114583
 30
0.0
 11
-2.198660131902684
 21
23.30795676108139
 31
0.0
  0
SPLINE
  5
5214
330
51E9
100
AcDbEntity
  8
0
100
AcDbSpline
210
0.0
220
0.0
230
1.0
 70
     8
 71
     2
 72
     8
 73
     5
 74
     0
 42
0.000000001
 43
0.0000000001
 40
0.0
 40
0.0
 40
0.0
 40
1.0
 40
2.0
 40
3.0
 40
3.0
 40
3.0
 10
-2.200276991944732
 20
23.72779071862856
 30
0.0
 10
-2.29459382773099
 20
23.67333686809825
 30
0.0
 10
-2.350644975855395
 20
23.55820586983417
 30
0.0
 10
-2.275730460573739
 20
23.4440083661506
 30
0.0
 10
-2.198660131902683
 20
23.39951179114583
 30
0.0
  0
SPLINE
  5
5215
330
51E9
100
AcDbEntity
  8
0
100
AcDbSpline
210
0.0
220
0.0
230
1.0
 70
     8
 71
     2
 72
     7
 73
     4
 74
     0
 42
0.000000001
 43
0.0000000001
 40
1.427983539094652
 40
1.427983539094652
 40
1.427983539094652
 40
2.0
 40
2.574160160167044
 40
2.574160160167044
 40
2.574160160167044
 10
-2.334613886165493
 20
23.46288762515085
 30
0.0
 10
-2.334613886165493
 20
23.43007347816521
 30
0.0
 10
-2.291681253168091
 20
23.36462822371174
 30
0.0
 10
-2.257115947502121
 20
23.33599882743277
 30
0.0
  0
SPLINE
  5
5216
330
51E9
100
AcDbEntity
  8
0
100
AcDbSpline
210
0.0
220
0.0
230
1.0
 70
     8
 71
     2
 72
     6
 73
     3
 74
     0
 42
0.000000001
 43
0.0000000001
 40
0.0
 40
0.0
 40
0.0
 40
1.0
 40
1.0
 40
1.0
 10
-2.028350874140066
 20
23.79282417440475
 30
0.0
 10
-2.123745616621024
 20
23.77197612877315
 30
0.0
 10
-2.200276991944732
 20
23.72779071862856
 30
0.0
  0
SPLINE
  5
5217
330
51E9
100
AcDbEntity
  8
0
100
AcDbSpline
210
0.0
220
0.0
230
1.0
 70
     8
 71
     2
 72
     8
 73
     5
 74
     0
 42
0.000000001
 43
0.0000000001
 40
0.0
 40
0.0
 40
0.0
 40
1.0
 40
2.0
 40
3.0
 40
3.0
 40
3.0
 10
-1.633837023879833
 20
23.72747955376838
 30
0.0
 10
-1.704439912382689
 20
23.76824215045107
 30
0.0
 10
-1.845645689388401
 20
23.80495960395151
 30
0.0
 10
-1.972838679363012
 20
23.80433727423117
 30
0.0
 10
-2.028350874140066
 20
23.79282417440475
 30
0.0
  0
SPLINE
  5
5218
330
51E9
100
AcDbEntity
  8
0
100
AcDbSpline
210
0.0
220
0.0
230
1.0
 70
     8
 71
     2
 72
     8
 73
     5
 74
     0
 42
0.000000001
 43
0.0000000001
 40
0.0
 40
0.0
 40
0.0
 40
1.0
 40
2.0
 40
3.0
 40
3.0
 40
3.0
 10
-1.562156228682278
 20
23.50935298678697
 30
0.0
 10
-1.525507401062475
 20
23.55042674832983
 30
0.0
 10
-1.515806240810174
 20
23.61639369868655
 30
0.0
 10
-1.575091109018678
 20
23.6935625840095
 30
0.0
 10
-1.633837023879833
 20
23.72747955376838
 30
0.0
  0
LINE
  5
5219
330
51E9
100
AcDbEntity
  8
0
100
AcDbLine
 10
-1.446281259002018
 20
23.46921271982463
 30
0.0
 11
-1.562156228682278
 21
23.50935298678697
 31
0.0
  0
SPLINE
  5
521A
330
51E9
100
AcDbEntity
  8
0
100
AcDbSpline
210
0.0
220
0.0
230
1.0
 70
     8
 71
     2
 72
     8
 73
     5
 74
     0
 42
0.000000001
 43
0.0000000001
 40
0.0
 40
0.0
 40
0.0
 40
1.0
 40
2.0
 40
3.0
 40
3.0
 40
3.0
 10
-1.554071928472026
 20
23.77415428279436
 30
0.0
 10
-1.469456252938069
 20
23.72530139974717
 30
0.0
 10
-1.383223717362062
 20
23.61826068784759
 30
0.0
 10
-1.394541737656414
 20
23.52211074605407
 30
0.0
 10
-1.446281259002018
 20
23.46921271982463
 30
0.0
  0
LINE
  5
521B
330
51E9
100
AcDbEntity
  8
0
100
AcDbLine
 10
-1.554071928472027
 20
23.77415428279436
 30
0.0
 11
-1.554071928472027
 21
23.67045921701654
 31
0.0
  0
SPLINE
  5
521C
330
51E9
100
AcDbEntity
  8
0
100
AcDbSpline
210
0.0
220
0.0
230
1.0
 70
     8
 71
     2
 72
     7
 73
     4
 74
     0
 42
0.000000001
 43
0.0000000001
 40
0.0
 40
0.0
 40
0.0
 40
1.0
 40
1.364899433965877
 40
1.364899433965877
 40
1.364899433965877
 10
-1.554071928472026
 20
23.67045921701654
 30
0.0
 10
-1.469456252938069
 20
23.62160633396935
 30
0.0
 10
-1.410606883439502
 20
23.54855643042783
 30
0.0
 10
-1.401368287875669
 20
23.52975194455169
 30
0.0
  0
SPLINE
  5
521D
330
51E9
100
AcDbEntity
  8
0
100
AcDbSpline
210
0.0
220
0.0
230
1.0
 70
     8
 71
     2
 72
     8
 73
     5
 74
     0
 42
0.000000001
 43
0.0000000001
 40
0.0
 40
0.0
 40
0.0
 40
1.0
 40
2.0
 40
3.0
 40
3.0
 40
3.0
 10
-2.31237928819354
 20
23.78566738262077
 30
0.0
 10
-2.208900245502332
 20
23.84541103577403
 30
0.0
 10
-1.935111945048508
 20
23.89395275396104
 30
0.0
 10
-1.669946898152286
 20
23.8410547277316
 30
0.0
 10
-1.554071928472026
 20
23.77415428279436
 30
0.0
  0
LINE
  5
521E
330
51E9
100
AcDbEntity
  8
0
100
AcDbLine
 10
-2.31237928819354
 20
23.78566738262077
 30
0.0
 11
-2.31237928819354
 21
23.68197231684295
 31
0.0
  0
SPLINE
  5
521F
330
51E9
100
AcDbEntity
  8
0
100
AcDbSpline
210
0.0
220
0.0
230
1.0
 70
     8
 71
     2
 72
     6
 73
     3
 74
     0
 42
0.000000001
 43
0.0000000001
 40
0.0
 40
0.0
 40
0.0
 40
0.6001167586813893
 40
0.6001167586813893
 40
0.6001167586813893
 10
-2.31237928819354
 20
23.68197231684295
 30
0.0
 10
-2.250279780502239
 20
23.71782548432507
 30
0.0
 10
-2.176146151837877
 20
23.7409034753541
 30
0.0
  0
SPLINE
  5
5220
330
51E9
100
AcDbEntity
  8
0
100
AcDbSpline
210
0.0
220
0.0
230
1.0
 70
     8
 71
     2
 72
     6
 73
     3
 74
     0
 42
0.000000001
 43
0.0000000001
 40
2.955226219562779
 40
2.955226219562779
 40
2.955226219562779
 40
3.0
 40
3.0
 40
3.0
 10
-1.564481742862892
 20
23.676368896044
 30
0.0
 10
-1.55926008892266
 20
23.67345460284931
 30
0.0
 10
-1.554071928472026
 20
23.67045921701654
 30
0.0
  0
SPLINE
  5
5221
330
51E9
100
AcDbEntity
  8
0
100
AcDbSpline
210
0.0
220
0.0
230
1.0
 70
     8
 71
     2
 72
     8
 73
     5
 74
     0
 42
0.000000001
 43
0.0000000001
 40
0.0
 40
0.0
 40
0.0
 40
1.0
 40
2.0
 40
3.0
 40
3.0
 40
3.0
 10
-2.27734732061579
 20
23.34723609463674
 30
0.0
 10
-2.392144383601349
 20
23.41351420985362
 30
0.0
 10
-2.489694939471707
 20
23.57314178312248
 30
0.0
 10
-2.416397284232099
 20
23.72561256460735
 30
0.0
 10
-2.31237928819354
 20
23.78566738262077
 30
0.0
  0
SPLINE
  5
5222
330
51E9
100
AcDbEntity
  8
0
100
AcDbSpline
210
0.0
220
0.0
230
1.0
 70
     8
 71
     2
 72
     7
 73
     4
 74
     0
 42
0.000000001
 43
0.0000000001
 40
1.904314241883448
 40
1.904314241883448
 40
1.904314241883448
 40
2.0
 40
3.0
 40
3.0
 40
3.0
 10
-2.459277530585129
 20
23.5310600628207
 30
0.0
 10
-2.456552882706787
 20
23.53838746692859
 30
0.0
 10
-2.416397284232099
 20
23.62191749882953
 30
0.0
 10
-2.31237928819354
 20
23.68197231684295
 30
0.0
  0
SPLINE
  5
5223
330
51E9
100
AcDbEntity
  8
0
100
AcDbSpline
210
0.0
220
0.0
230
1.0
 70
     8
 71
     2
 72
     7
 73
     4
 74
     0
 42
0.000000001
 43
0.0000000001
 40
0.0
 40
0.0
 40
0.0
 40
1.0
 40
2.0
 40
2.0
 40
2.0
 10
-1.845106736041053
 20
23.22525946944884
 30
0.0
 10
-1.976072399447115
 20
23.23739489899559
 30
0.0
 10
-2.192731645081833
 20
23.29838321158954
 30
0.0
 10
-2.27734732061579
 20
23.34723609463674
 30
0.0
  0
LINE
  5
5224
330
51E9
100
AcDbEntity
  8
0
100
AcDbLine
 10
-1.58317540922893
 20
23.37648559149301
 30
0.0
 11
-1.845106736041053
 21
23.22525946944884
 31
0.0
  0
LINE
  5
5225
330
51E9
100
AcDbEntity
  8
0
100
AcDbLine
 10
-1.912475904459808
 20
23.56660732105884
 30
0.0
 11
-1.58317540922893
 21
23.37648559149301
 31
0.0
  0
LINE
  5
5226
330
51E9
100
AcDbEntity
  8
0
100
AcDbLine
 10
-1.912475904459808
 20
23.56660732105884
 30
0.0
 11
-1.912475904459808
 21
23.47014621440515
 31
0.0
  0
LINE
  5
5227
330
51E9
100
AcDbEntity
  8
0
100
AcDbLine
 10
-1.767497454022646
 20
23.37920890789443
 30
0.0
 11
-1.672977970439622
 21
23.32463805860411
 31
0.0
  0
LINE
  5
5228
330
51E9
100
AcDbEntity
  8
0
100
AcDbLine
 10
-1.996013673299065
 20
23.51837676773199
 30
0.0
 11
-1.912475904459808
 21
23.56660732105884
 31
0.0
  0
LINE
  5
5229
330
51E9
100
AcDbEntity
  8
0
100
AcDbLine
 10
-2.334613886165493
 20
23.56658269092867
 30
0.0
 11
-2.334613886165493
 21
23.46288762515085
 31
0.0
  0
LINE
  5
522A
330
51E9
100
AcDbEntity
  8
0
100
AcDbLine
 10
-1.519974708106084
 20
23.59279758722196
 30
0.0
 11
-1.519974708106084
 21
23.49474087943127
 31
0.0
  0
SPLINE
  5
522B
330
51E9
100
AcDbEntity
  8
0
100
AcDbSpline
210
0.0
220
0.0
230
1.0
 70
     8
 71
     3
 72
    12
 73
     8
 74
     0
 42
0.000000001
 43
0.0000000001
 40
0.0701625880555413
 40
0.0701625880555413
 40
0.0701625880555413
 40
0.0701625880555413
 40
0.0876266719572695
 40
0.0876266719572695
 40
0.1050907558589977
 40
0.1050907558589977
 40
0.121349748553623
 40
0.121349748553623
 40
0.121349748553623
 40
0.121349748553623
 10
-0.5111676140774783
 20
23.35194870236374
 30
0.0
 10
-0.4549375818336168
 20
23.36064751862494
 30
0.0
 10
-0.392224307219462
 20
23.36065801101366
 30
0.0
 10
-0.2727170235771115
 20
23.34075430213968
 30
0.0
 10
-0.2159242089023017
 20
23.32082478835618
 30
0.0
 10
-0.1270606690216023
 20
23.27096775140768
 30
0.0
 10
-0.0891693016953935
 20
23.23945692081389
 30
0.0
 10
-0.0622418152746689
 20
23.20374575384008
 30
0.0
  0
SPLINE
  5
522C
330
51E9
100
AcDbEntity
  8
0
100
AcDbSpline
210
0.0
220
0.0
230
1.0
 70
     8
 71
     3
 72
    18
 73
    14
 74
     0
 42
0.000000001
 43
0.0000000001
 40
0.028525742117437
 40
0.028525742117437
 40
0.028525742117437
 40
0.028525742117437
 40
0.0417123967319211
 40
0.0417123967319211
 40
0.0621425582382483
 40
0.0621425582382483
 40
0.0825727197445755
 40
0.0825727197445755
 40
0.1030028812509027
 40
0.1030028812509027
 40
0.1234330427572299
 40
0.1234330427572299
 40
0.1366196973717141
 40
0.1366196973717141
 40
0.1366196973717141
 40
0.1366196973717141
 10
-0.0622418152746689
 20
23.20374575384008
 30
0.0
 10
-0.0400439819450719
 20
23.17430704128799
 30
0.0
 10
-0.014021453311734
 20
23.14696397556042
 30
0.0
 10
0.0570445641339865
 20
23.08549494757656
 30
0.0
 10
0.111859860586452
 20
23.05011473626878
 30
0.0
 10
0.2348496768877825
 20
22.99544101768069
 30
0.0
 10
0.303037070490365
 20
22.97621856243431
 30
0.0
 10
0.4345972080518198
 20
22.9558661383243
 30
0.0
 10
0.5082892553598323
 20
22.95313976767687
 30
0.0
 10
0.6541990676600904
 20
22.96621456895032
 30
0.0
 10
0.726423701071537
 20
22.98194163471248
 30
0.0
 10
0.8306389434740173
 20
23.01629455743004
 30
0.0
 10
0.8720754077138085
 20
23.03320168064161
 30
0.0
 10
0.9116277604675692
 20
23.05308760616159
 30
0.0
  0
SPLINE
  5
522D
330
51E9
100
AcDbEntity
  8
0
100
AcDbSpline
210
0.0
220
0.0
230
1.0
 70
     8
 71
     3
 72
    12
 73
     8
 74
     0
 42
0.000000001
 43
0.0000000001
 40
0.0189754275574595
 40
0.0189754275574595
 40
0.0189754275574595
 40
0.0189754275574595
 40
0.0352344202520848
 40
0.0352344202520848
 40
0.052698504153813
 40
0.052698504153813
 40
0.0701625880555413
 40
0.0701625880555413
 40
0.0701625880555413
 40
0.0701625880555413
 10
0.9116277604675692
 20
23.05308760616159
 30
0.0
 10
0.9596074630750546
 20
23.07721059066425
 30
0.0
 10
1.014069987187361
 20
23.09443422453108
 30
0.0
 10
1.124801013903051
 20
23.11341387456955
 30
0.0
 10
1.187130518250475
 20
23.11491510146733
 30
0.0
 10
1.302416879772616
 20
23.09849610702634
 30
0.0
 10
1.355372652329689
 20
23.08059155076641
 30
0.0
 10
1.396535892843432
 20
23.05682594277509
 30
0.0
  0
SPLINE
  5
522E
330
51E9
100
AcDbEntity
  8
0
100
AcDbSpline
210
0.0
220
0.0
230
1.0
 70
     8
 71
     3
 72
    12
 73
     8
 74
     0
 42
0.000000001
 43
0.0000000001
 40
0.0701625880555413
 40
0.0701625880555413
 40
0.0701625880555413
 40
0.0701625880555413
 40
0.0876266719572696
 40
0.0876266719572696
 40
0.1050907558589978
 40
0.1050907558589978
 40
0.1213497485536232
 40
0.1213497485536232
 40
0.1213497485536232
 40
0.1213497485536232
 10
-1.907703506920909
 20
22.54565832869761
 30
0.0
 10
-1.89263671519079
 20
22.57812275295014
 30
0.0
 10
-1.863627901182035
 20
22.60870727487983
 30
0.0
 10
-1.783453349248283
 20
22.65536417786455
 30
0.0
 10
-1.73228829558277
 20
22.67142062019449
 30
0.0
 10
-1.629360071217626
 20
22.68549417132793
 30
0.0
 10
-1.572919579672874
 20
22.68542729369114
 30
0.0
 10
-1.516743783445389
 20
22.67741722093339
 30
0.0
  0
SPLINE
  5
522F
330
51E9
100
AcDbEntity
  8
0
100
AcDbSpline
210
0.0
220
0.0
230
1.0
 70
     8
 71
     3
 72
    18
 73
    14
 74
     0
 42
0.000000001
 43
0.0000000001
 40
0.028525742117437
 40
0.028525742117437
 40
0.028525742117437
 40
0.028525742117437
 40
0.0417123967319211
 40
0.0417123967319211
 40
0.0621425582382483
 40
0.0621425582382483
 40
0.0825727197445755
 40
0.0825727197445755
 40
0.1030028812509027
 40
0.1030028812509027
 40
0.1234330427572299
 40
0.1234330427572299
 40
0.136619697371714
 40
0.136619697371714
 40
0.136619697371714
 40
0.136619697371714
 10
-1.516743783445389
 20
22.67741722093339
 30
0.0
 10
-1.470434932246586
 20
22.67081406989078
 30
0.0
 10
-1.424687399530594
 20
22.66739435794631
 30
0.0
 10
-1.315247322212113
 20
22.66609402821718
 30
0.0
 10
-1.244965884037916
 20
22.67241272845163
 30
0.0
 10
-1.115232492112361
 20
22.70198007927249
 30
0.0
 10
-1.055781515663697
 20
22.72530374737653
 30
0.0
 10
-0.9594728107179616
 20
22.78090760410226
 30
0.0
 10
-0.9150608278706041
 20
22.81754924350661
 30
0.0
 10
-0.8479460295233948
 20
22.90163224832921
 30
0.0
 10
-0.8252277844472216
 20
22.94900694025391
 30
0.0
 10
-0.8063530739421375
 20
23.024389847274
 30
0.0
 10
-0.8027171964475725
 20
23.05632108439702
 30
0.0
 10
-0.8038217740565249
 20
23.08902293496526
 30
0.0
  0
SPLINE
  5
5230
330
51E9
100
AcDbEntity
  8
0
100
AcDbSpline
210
0.0
220
0.0
230
1.0
 70
     8
 71
     3
 72
    12
 73
     8
 74
     0
 42
0.000000001
 43
0.0000000001
 40
0.0189754275574595
 40
0.0189754275574595
 40
0.0189754275574595
 40
0.0189754275574595
 40
0.0352344202520848
 40
0.0352344202520848
 40
0.052698504153813
 40
0.052698504153813
 40
0.0701625880555413
 40
0.0701625880555413
 40
0.0701625880555413
 40
0.0701625880555413
 10
-0.8038217740565249
 20
23.08902293496526
 30
0.0
 10
-0.805161702063194
 20
23.12869251100154
 30
0.0
 10
-0.7939944527982518
 20
23.16779273599411
 30
0.0
 10
-0.7508093135001481
 20
23.23807777470385
 30
0.0
 10
-0.7147707773259583
 20
23.27236834844216
 30
0.0
 10
-0.6230644517050039
 20
23.3249469163822
 30
0.0
 10
-0.56739764632134
 20
23.34324988610253
 30
0.0
 10
-0.5111676140774783
 20
23.35194870236374
 30
0.0
  0
SPLINE
  5
5231
330
51E9
100
AcDbEntity
  8
0
100
AcDbSpline
210
0.0
220
0.0
230
1.0
 70
     8
 71
     3
 72
     8
 73
     4
 74
     0
 42
0.000000001
 43
0.0000000001
 40
0.1208309966638755
 40
0.1208309966638755
 40
0.1208309966638755
 40
0.1208309966638755
 40
0.1213497485536227
 40
0.1213497485536227
 40
0.1213497485536227
 40
0.1213497485536227
 10
-1.457268808394893
 20
21.68502965339205
 30
0.0
 10
-1.456357442842428
 20
21.68569155519289
 30
0.0
 10
-1.455435151195593
 20
21.68634903541294
 30
0.0
 10
-1.45450196817072
 20
21.68700197039469
 30
0.0
  0
SPLINE
  5
5232
330
51E9
100
AcDbEntity
  8
0
100
AcDbSpline
210
0.0
220
0.0
230
1.0
 70
     8
 71
     3
 72
    18
 73
    14
 74
     0
 42
0.000000001
 43
0.0000000001
 40
0.028525742117437
 40
0.028525742117437
 40
0.028525742117437
 40
0.028525742117437
 40
0.041712396731921
 40
0.041712396731921
 40
0.0621425582382483
 40
0.0621425582382483
 40
0.0825727197445755
 40
0.0825727197445755
 40
0.1030028812509027
 40
0.1030028812509027
 40
0.1234330427572299
 40
0.1234330427572299
 40
0.136619697371714
 40
0.136619697371714
 40
0.136619697371714
 40
0.136619697371714
 10
-1.45450196817072
 20
21.68700197039469
 30
0.0
 10
-1.430390950301514
 20
21.7038721090414
 30
0.0
 10
-1.410665946218859
 20
21.72227657602983
 30
0.0
 10
-1.372291886346098
 20
21.77024762536444
 30
0.0
 10
-1.356825744624367
 20
21.80514885223087
 30
0.0
 10
-1.350082169000142
 20
21.88020852556832
 30
0.0
 10
-1.358818586154061
 20
21.92043704677061
 30
0.0
 10
-1.39407001876978
 20
21.99639332760634
 30
0.0
 10
-1.423350083230435
 20
22.03807893980626
 30
0.0
 10
-1.502145097183484
 20
22.11826853942692
 30
0.0
 10
-1.551651485518757
 20
22.15671385026525
 30
0.0
 10
-1.636992017416153
 20
22.2099414834879
 30
0.0
 10
-1.674792604161379
 20
22.23048448419404
 30
0.0
 10
-1.715449534524092
 20
22.24926583210506
 30
0.0
  0
SPLINE
  5
5233
330
51E9
100
AcDbEntity
  8
0
100
AcDbSpline
210
0.0
220
0.0
230
1.0
 70
     8
 71
     3
 72
    12
 73
     8
 74
     0
 42
0.000000001
 43
0.0000000001
 40
0.0189754275574596
 40
0.0189754275574596
 40
0.0189754275574596
 40
0.0189754275574596
 40
0.0352344202520849
 40
0.0352344202520849
 40
0.0526985041538131
 40
0.0526985041538131
 40
0.0701625880555413
 40
0.0701625880555413
 40
0.0701625880555413
 40
0.0701625880555413
 10
-1.715449534524092
 20
22.24926583210506
 30
0.0
 10
-1.764769165138247
 20
22.27204888860106
 30
0.0
 10
-1.808064439985612
 20
22.30043977173283
 30
0.0
 10
-1.875610327403199
 20
22.3626045610694
 30
0.0
 10
-1.901901295576433
 20
22.40014432414137
 30
0.0
 10
-1.925481331477619
 20
22.47543165532133
 30
0.0
 10
-1.922770298651028
 20
22.51319390444507
 30
0.0
 10
-1.907703506920909
 20
22.54565832869761
 30
0.0
  0
SPLINE
  5
5234
330
51E9
100
AcDbEntity
  8
0
100
AcDbSpline
210
0.0
220
0.0
230
1.0
 70
     8
 71
     3
 72
    14
 73
    10
 74
     0
 42
0.000000001
 43
0.0000000001
 40
0.0560019654545531
 40
0.0560019654545531
 40
0.0560019654545531
 40
0.0560019654545531
 40
0.0621425582382483
 40
0.0621425582382483
 40
0.0825727197445755
 40
0.0825727197445755
 40
0.1030028812509027
 40
0.1030028812509027
 40
0.1174535963263886
 40
0.1174535963263886
 40
0.1174535963263886
 40
0.1174535963263886
 10
-0.1198497070333111
 20
21.31646641218316
 30
0.0
 10
-0.1369917586585482
 20
21.3225007754073
 30
0.0
 10
-0.1548715477842591
 20
21.32828554909946
 30
0.0
 10
-0.2348496768877803
 20
21.35189791027235
 30
0.0
 10
-0.3030370704903627
 20
21.36648516122246
 30
0.0
 10
-0.4345972080518175
 20
21.38683758533247
 30
0.0
 10
-0.5082892553598305
 20
21.39419916027617
 30
0.0
 10
-0.6328468158408046
 20
21.39871331345185
 30
0.0
 10
-0.6840841108728193
 20
21.39819416740031
 30
0.0
 10
-0.7320687734738197
 20
21.39558855774088
 30
0.0
  0
SPLINE
  5
5235
330
51E9
100
AcDbEntity
  8
0
100
AcDbSpline
210
0.0
220
0.0
230
1.0
 70
     8
 71
     3
 72
     8
 73
     4
 74
     0
 42
0.000000001
 43
0.0000000001
 40
0.1171568331781045
 40
0.1171568331781045
 40
0.1171568331781045
 40
0.1171568331781045
 40
0.121349748553623
 40
0.121349748553623
 40
0.121349748553623
 40
0.121349748553623
 10
1.560135490984933
 20
21.75550255852851
 30
0.0
 10
1.545734935500764
 20
21.75300930235778
 30
0.0
 10
1.531230557882043
 20
21.75091044569526
 30
0.0
 10
1.516743783445391
 20
21.74924378566936
 30
0.0
  0
SPLINE
  5
5236
330
51E9
100
AcDbEntity
  8
0
100
AcDbSpline
210
0.0
220
0.0
230
1.0
 70
     8
 71
     3
 72
    16
 73
    12
 74
     0
 42
0.000000001
 43
0.0000000001
 40
0.028525742117437
 40
0.028525742117437
 40
0.028525742117437
 40
0.028525742117437
 40
0.0417123967319209
 40
0.0417123967319209
 40
0.062142558238248
 40
0.062142558238248
 40
0.0825727197445751
 40
0.0825727197445751
 40
0.1030028812509022
 40
0.1030028812509022
 40
0.1194378483461129
 40
0.1194378483461129
 40
0.1194378483461129
 40
0.1194378483461129
 10
1.516743783445391
 20
21.74924378566936
 30
0.0
 10
1.470434932246588
 20
21.74391609098647
 30
0.0
 10
1.424687399530597
 20
21.73629802934156
 30
0.0
 10
1.315247322212116
 20
21.71320306123045
 30
0.0
 10
1.244965884037919
 20
21.69328899164441
 30
0.0
 10
1.115232492112365
 20
21.64535884868055
 30
0.0
 10
1.055781515663701
 20
21.61739997628024
 30
0.0
 10
0.9594728107179662
 20
21.56179611955451
 30
0.0
 10
0.9150608278706089
 20
21.52978968444643
 30
0.0
 10
0.8545083043046574
 20
21.47049538832931
 30
0.0
 10
0.8345275628005513
 20
21.44346634266566
 30
0.0
 10
0.8217737291562057
 20
21.41777459764149
 30
0.0
  0
SPLINE
  5
5237
330
51E9
100
AcDbEntity
  8
0
100
AcDbSpline
210
0.0
220
0.0
230
1.0
 70
     8
 71
     3
 72
    10
 73
     6
 74
     0
 42
0.000000001
 43
0.0000000001
 40
0.0189754275574595
 40
0.0189754275574595
 40
0.0189754275574595
 40
0.0189754275574595
 40
0.0352344202520848
 40
0.0352344202520848
 40
0.0425305134940944
 40
0.0425305134940944
 40
0.0425305134940944
 40
0.0425305134940944
 10
1.715449534524094
 20
22.1773951744977
 30
0.0
 10
1.764769165138249
 20
22.16908504792649
 30
0.0
 10
1.808064439985612
 20
22.15372274880676
 30
0.0
 10
1.855244274786319
 20
22.1254718055528
 30
0.0
 10
1.868341507812571
 20
22.11548314672718
 30
0.0
 10
1.879498403777083
 20
22.10453195092605
 30
0.0
  0
SPLINE
  5
5238
330
51E9
100
AcDbEntity
  8
0
100
AcDbSpline
210
0.0
220
0.0
230
1.0
 70
     8
 71
     3
 72
    12
 73
     8
 74
     0
 42
0.000000001
 43
0.0000000001
 40
0.0701625880555413
 40
0.0701625880555413
 40
0.0701625880555413
 40
0.0701625880555413
 40
0.0876266719572695
 40
0.0876266719572695
 40
0.1050907558589977
 40
0.1050907558589977
 40
0.121349748553623
 40
0.121349748553623
 40
0.121349748553623
 40
0.121349748553623
 10
1.396535892843432
 20
23.05682594277509
 30
0.0
 10
1.437699133357174
 20
23.03306033478376
 30
0.0
 10
1.471403593962574
 20
23.00093158209929
 30
0.0
 10
1.510736325671172
 20
22.92808120144166
 30
0.0
 10
1.516364086680468
 20
22.88734482909679
 30
0.0
 10
1.502299402196025
 20
22.81255484034954
 30
0.0
 10
1.483750277977482
 20
22.77459659538653
 30
0.0
 10
1.454501968170722
 20
22.73965903620807
 30
0.0
  0
SPLINE
  5
5239
330
51E9
100
AcDbEntity
  8
0
100
AcDbSpline
210
0.0
220
0.0
230
1.0
 70
     8
 71
     3
 72
    18
 73
    14
 74
     0
 42
0.000000001
 43
0.0000000001
 40
0.028525742117437
 40
0.028525742117437
 40
0.028525742117437
 40
0.028525742117437
 40
0.0417123967319211
 40
0.0417123967319211
 40
0.0621425582382483
 40
0.0621425582382483
 40
0.0825727197445755
 40
0.0825727197445755
 40
0.1030028812509027
 40
0.1030028812509027
 40
0.1234330427572299
 40
0.1234330427572299
 40
0.1366196973717139
 40
0.1366196973717139
 40
0.1366196973717139
 40
0.1366196973717139
 10
1.454501968170722
 20
22.73965903620807
 30
0.0
 10
1.430390950301516
 20
22.71085805183584
 30
0.0
 10
1.410665946218862
 20
22.68141581125805
 30
0.0
 10
1.3722918863461
 20
22.60904946408319
 30
0.0
 10
1.356825744624369
 20
22.56055286786518
 30
0.0
 10
1.350082169000145
 20
22.46713040238471
 30
0.0
 10
1.358818586154062
 20
22.42226667688616
 30
0.0
 10
1.394070018769782
 20
22.34631039605043
 30
0.0
 10
1.423350083230437
 20
22.30925998814678
 30
0.0
 10
1.502145097183486
 20
22.24743318066913
 30
0.0
 10
1.551651485518759
 20
22.22258323918238
 30
0.0
 10
1.636992017416155
 20
22.19375090379998
 30
0.0
 10
1.674792604161381
 20
22.18424567668321
 30
0.0
 10
1.715449534524094
 20
22.1773951744977
 30
0.0
  0
ELLIPSE
  5
523A
330
51E9
100
AcDbEntity
  8
0
100
AcDbEllipse
 10
0.000000000000001
 20
22.25053556910896
 30
0.0
 11
1.974999999999999
 21
-0.0000000000000005
 31
0.0
210
0.0
220
0.0
230
1.0
 40
0.5773502691896255
 41
0.7853981633974492
 42
1.832595714594045
  0
ELLIPSE
  5
523B
330
51E9
100
AcDbEntity
  8
0
100
AcDbEllipse
 10
0.000000000000001
 20
22.25053556910896
 30
0.0
 11
-1.974999999999999
 21
0.0000000000000004
 31
0.0
210
0.0
220
0.0
230
1.0
 40
0.5773502691896255
 41
4.974188368183838
 42
6.021385919380437
  0
ELLIPSE
  5
523C
330
51E9
100
AcDbEntity
  8
0
100
AcDbEllipse
 10
0.000000000000001
 20
22.25053556910896
 30
0.0
 11
-1.975
 21
0.0000000000000006
 31
0.0
210
0.0
220
0.0
230
1.0
 40
0.5773502691896258
 41
6.021385919380437
 42
6.1935581717288
  0
ELLIPSE
  5
523D
330
51E9
100
AcDbEntity
  8
0
100
AcDbEllipse
 10
0.000000000000001
 20
22.25053556910896
 30
0.0
 11
1.974999999999999
 21
-0.0000000000000006
 31
0.0
210
0.0
220
0.0
230
1.0
 40
0.5773502691896257
 41
0.0896271354507876
 42
0.7853981633974492
  0
ELLIPSE
  5
523E
330
51E9
100
AcDbEntity
  8
0
100
AcDbEllipse
 10
0.000000000000001
 20
22.45465971434089
 30
0.0
 11
1.974999999999999
 21
-0.0000000000000003
 31
0.0
210
0.0
220
0.0
230
1.0
 40
0.5773502691896255
 41
0.0
 42
6.283185307179586
  0
LINE
  5
523F
330
51E9
100
AcDbEntity
  8
0
100
AcDbLine
 10
-1.45450196817072
 20
21.68700197039469
 30
0.0
 11
-1.45450196817072
 21
21.68328669074649
 31
0.0
  0
LINE
  5
5240
330
51E9
100
AcDbEntity
  8
0
100
AcDbLine
 10
1.715449534524094
 20
22.1773951744977
 30
0.0
 11
1.715449534524094
 21
21.88960576573625
 31
0.0
  0
LINE
  5
5241
330
51E9
100
AcDbEntity
  8
0
100
AcDbLine
 10
0.9116277604675692
 20
23.05308760616159
 30
0.0
 11
0.9116277604675692
 21
21.80794028692645
 31
0.0
  0
SPLINE
  5
5242
330
51E9
100
AcDbEntity
  8
0
100
AcDbSpline
210
0.0
220
0.0
230
1.0
 70
     8
 71
     3
 72
    12
 73
     8
 74
     0
 42
0.000000001
 43
0.0000000001
 40
0.1758978908950095
 40
0.1758978908950095
 40
0.1758978908950095
 40
0.1758978908950095
 40
0.1876544926563665
 40
0.1876544926563665
 40
0.2051185765580947
 40
0.2051185765580947
 40
0.22137756925272
 40
0.22137756925272
 40
0.22137756925272
 40
0.22137756925272
 10
1.352647353202114
 20
21.83296749863862
 30
0.0
 10
1.32025878263462
 20
21.84611160472368
 30
0.0
 10
1.283578363732537
 20
21.85603175467518
 30
0.0
 10
1.187130518250475
 20
21.86976778223219
 30
0.0
 10
1.124801013903051
 20
21.86826655533441
 30
0.0
 10
1.01406998718736
 20
21.84928690529595
 30
0.0
 10
0.9596074630750541
 20
21.83206327142912
 30
0.0
 10
0.9116277604675692
 20
21.80794028692645
 30
0.0
  0
LINE
  5
5243
330
51E9
100
AcDbEntity
  8
0
100
AcDbLine
 10
-1.516743783445389
 20
22.67741722093339
 30
0.0
 11
-1.51674378344539
 21
22.12724540015829
 31
0.0
  0
SPLINE
  5
5244
330
51E9
100
AcDbEntity
  8
0
100
AcDbSpline
210
0.0
220
0.0
230
1.0
 70
     8
 71
     3
 72
    18
 73
    14
 74
     0
 42
0.000000001
 43
0.0000000001
 40
0.1190032482565566
 40
0.1190032482565566
 40
0.1190032482565566
 40
0.1190032482565566
 40
0.1352622409511818
 40
0.1352622409511818
 40
0.15272632485291
 40
0.15272632485291
 40
0.1701904087546383
 40
0.1701904087546383
 40
0.1876544926563666
 40
0.1876544926563666
 40
0.2051185765580948
 40
0.2051185765580948
 40
0.2189579795830252
 40
0.2189579795830252
 40
0.2189579795830252
 40
0.2189579795830252
 10
-0.0622418152746692
 20
21.95859843460494
 30
0.0
 10
-0.0891693016953936
 20
21.99430960157876
 30
0.0
 10
-0.127060669021602
 20
22.02582043217254
 30
0.0
 10
-0.2159242089023019
 20
22.07567746912104
 30
0.0
 10
-0.2727170235771118
 20
22.09560698290454
 30
0.0
 10
-0.3922243072194617
 20
22.11551069177853
 30
0.0
 10
-0.4549375818336168
 20
22.11550019938981
 30
0.0
 10
-0.5673976463213402
 20
22.0981025668674
 30
0.0
 10
-0.6230644517050039
 20
22.07979959714707
 30
0.0
 10
-0.7147707773259584
 20
22.02722102920703
 30
0.0
 10
-0.7508093135001487
 20
21.99293045546871
 30
0.0
 10
-0.7908959716548881
 20
21.92768828267634
 30
0.0
 10
-0.8016241915934882
 20
21.89506716977199
 30
0.0
 10
-0.8035984306850783
 20
21.86153282346831
 30
0.0
  0
LINE
  5
5245
330
51E9
100
AcDbEntity
  8
0
100
AcDbLine
 10
-0.0622418152746689
 20
23.20374575384008
 30
0.0
 11
-0.0622418152746692
 21
21.95859843460494
 31
0.0
  0
SPLINE
  5
5246
330
51E9
100
AcDbEntity
  8
0
100
AcDbSpline
210
0.0
220
0.0
230
1.0
 70
     8
 71
     3
 72
    18
 73
    14
 74
     0
 42
0.000000001
 43
0.0000000001
 40
0.2877940432104188
 40
0.2877940432104188
 40
0.2877940432104188
 40
0.2877940432104188
 40
0.3009806978249029
 40
0.3009806978249029
 40
0.3214108593312301
 40
0.3214108593312301
 40
0.3418410208375573
 40
0.3418410208375573
 40
0.3622711823438845
 40
0.3622711823438845
 40
0.3827013438502117
 40
0.3827013438502117
 40
0.3958879984646958
 40
0.3958879984646958
 40
0.3958879984646958
 40
0.3958879984646958
 10
0.9116277604675692
 20
21.80794028692645
 30
0.0
 10
0.8720754077138083
 20
21.78805436140647
 30
0.0
 10
0.830638943474017
 20
21.7711472381949
 30
0.0
 10
0.726423701071537
 20
21.73679431547734
 30
0.0
 10
0.6541990676600906
 20
21.72106724971518
 30
0.0
 10
0.5082892553598322
 20
21.70799244844173
 30
0.0
 10
0.4345972080518197
 20
21.71071881908916
 30
0.0
 10
0.3030370704903647
 20
21.73107124319917
 30
0.0
 10
0.2348496768877825
 20
21.75029369844555
 30
0.0
 10
0.1118598605864519
 20
21.80496741703365
 30
0.0
 10
0.0570445641339863
 20
21.84034762834142
 30
0.0
 10
-0.0140214533117343
 20
21.90181665632529
 30
0.0
 10
-0.040043981945072
 20
21.92915972205285
 30
0.0
 10
-0.0622418152746692
 20
21.95859843460494
 30
0.0
  0
SPLINE
  5
5247
330
51E9
100
AcDbEntity
  8
0
100
AcDbSpline
210
0.0
220
0.0
230
1.0
 70
     8
 71
     3
 72
    14
 73
    10
 74
     0
 42
0.000000001
 43
0.0000000001
 40
0.2893731803585742
 40
0.2893731803585742
 40
0.2893731803585742
 40
0.2893731803585742
 40
0.3009806978249028
 40
0.3009806978249028
 40
0.32141085933123
 40
0.32141085933123
 40
0.3418410208375573
 40
0.3418410208375573
 40
0.3470423657831648
 40
0.3470423657831648
 40
0.3470423657831648
 40
0.3470423657831648
 10
-0.8036272200055771
 20
21.83216309870061
 30
0.0
 10
-0.8036420441056781
 20
21.80355992529876
 30
0.0
 10
-0.8072397062874536
 20
21.77570144466013
 30
0.0
 10
-0.8252277844472216
 20
21.70385962101878
 30
0.0
 10
-0.8479460295233948
 20
21.65648492909408
 30
0.0
 10
-0.9150608278706041
 20
21.57240192427147
 30
0.0
 10
-0.9594728107179612
 20
21.53576028486711
 30
0.0
 10
-1.019886850798593
 20
21.50088022256373
 30
0.0
 10
-1.032878749637612
 20
21.49409235520772
 30
0.0
 10
-1.046505814142619
 20
21.48766178037121
 30
0.0
  0
LINE
  5
5248
330
51E9
100
AcDbEntity
  8
0
100
AcDbLine
 10
-1.352711255005133
 20
21.85936142422681
 30
0.0
 11
-1.352711255005133
 21
21.62383737862315
 31
0.0
  0
LINE
  5
5249
330
51E9
100
AcDbEntity
  8
0
100
AcDbLine
 10
1.352711255005135
 20
22.49339309315826
 30
0.0
 11
1.352711255005135
 21
21.72080485348719
 31
0.0
  0
LINE
  5
524A
330
51E9
100
AcDbEntity
  8
0
100
AcDbLine
 10
-0.8036237229066511
 20
23.07731016137461
 30
0.0
 11
-0.8036237229066513
 21
21.83216284213947
 31
0.0
  0
ELLIPSE
  5
524B
330
51E9
100
AcDbEntity
  8
0
100
AcDbEllipse
 10
0.000000000000001
 20
22.45465971434089
 30
0.0
 11
-3.5
 21
-0.0000000000002082
 31
0.0
210
0.0
220
0.0
230
1.0
 40
0.5773502691896257
 41
0.0
 42
6.283185307179586
  0
ELLIPSE
  5
524C
330
51E9
100
AcDbEntity
  8
0
100
AcDbEllipse
 10
-0.0000000000000025
 20
0.0010037388284179
 30
0.0
 11
1.299999999999998
 21
0.0000000000000777
 31
0.0
210
0.0
220
0.0
230
1.0
 40
0.5773502691896258
 41
3.926990816987
 42
5.497787143781893
  0
ELLIPSE
  5
524D
330
51E9
100
AcDbEntity
  8
0
100
AcDbEllipse
 10
-0.0000000000000025
 20
0.1847154695371555
 30
0.0
 11
-1.524999999999998
 21
0.0000000000000002
 31
0.0
210
0.0
220
0.0
230
1.0
 40
0.5773502691896257
 41
0.0000000000000003
 42
3.141592653589793
  0
ELLIPSE
  5
524E
330
51E9
100
AcDbEntity
  8
0
100
AcDbEllipse
 10
0.0000000000000005
 20
19.30731093996235
 30
0.0
 11
1.525000000000001
 21
0.0000000000000904
 31
0.0
210
0.0
220
0.0
230
1.0
 40
0.5773502691896255
 41
4.15856317856965
 42
5.266214782199492
  0
ELLIPSE
  5
524F
330
51E9
100
AcDbEntity
  8
0
100
AcDbEllipse
 10
0.000000000000001
 20
21.96476176578425
 30
0.0
 11
3.5
 21
-0.0000000000000015
 31
0.0
210
0.0
220
0.0
230
1.0
 40
0.5773502691896253
 41
5.5979545649437
 42
6.283185307179587
  0
ELLIPSE
  5
5250
330
51E9
100
AcDbEntity
  8
0
100
AcDbEllipse
 10
0.000000000000001
 20
21.96476176578425
 30
0.0
 11
3.5
 21
0.000000000000208
 31
0.0
210
0.0
220
0.0
230
1.0
 40
0.5773502691896257
 41
4.027158238148615
 42
5.397619722620392
  0
ELLIPSE
  5
5251
330
51E9
100
AcDbEntity
  8
0
100
AcDbEllipse
 10
0.000000000000001
 20
21.96476176578425
 30
0.0
 11
-3.5
 21
0.000000000000001
 31
0.0
210
0.0
220
0.0
230
1.0
 40
0.5773502691896255
 41
0.0000000000000003
 42
0.6852307422358896
  0
ELLIPSE
  5
5252
330
51E9
100
AcDbEntity
  8
0
100
AcDbEllipse
 10
-0.0000000000000053
 20
-17.23548065291379
 30
0.0
 11
1.299999999999996
 21
0.0000000000000776
 31
0.0
210
0.0
220
0.0
230
1.0
 40
0.5773502691896257
 41
3.755360065784268
 42
5.505305203698299
  0
LINE
  5
5253
330
51E9
100
AcDbEntity
  8
0
100
AcDbLine
 10
-0.9192388155425142
 20
-0.5297190387746032
 30
0.0
 11
-1.078337841309485
 21
-0.4378631734202321
 31
0.0
  0
LINE
  5
5254
330
51E9
100
AcDbEntity
  8
0
100
AcDbLine
 10
0.9192388155425085
 20
-0.5297190387746032
 30
0.0
 11
1.078337841309479
 21
-0.4378631734202321
 31
0.0
  0
LINE
  5
5255
330
51E9
100
AcDbEntity
  8
0
100
AcDbLine
 10
-1.525000000000002
 20
0.1847154695371555
 30
0.0
 11
-1.525
 21
18.58011571808605
 31
0.0
  0
LINE
  5
5256
330
51E9
100
AcDbEntity
  8
0
100
AcDbLine
 10
1.524999999999998
 20
0.1847154695371555
 30
0.0
 11
1.525
 21
18.58011571808605
 31
0.0
  0
LINE
  5
5257
330
51E9
100
AcDbEntity
  8
0
100
AcDbLine
 10
2.709955647322595
 20
20.54899085632223
 30
0.0
 11
3.161427849859234
 21
21.09770276161471
 31
0.0
  0
LINE
  5
5258
330
51E9
100
AcDbEntity
  8
0
100
AcDbLine
 10
-2.70995564732259
 20
20.54899085632222
 30
0.0
 11
-3.161427849859233
 21
21.09770276161472
 31
0.0
  0
LINE
  5
5259
330
51E9
100
AcDbEntity
  8
0
100
AcDbLine
 10
-3.5
 20
21.96476176578425
 30
0.0
 11
-3.5
 21
22.45465971434089
 31
0.0
  0
LINE
  5
525A
330
51E9
100
AcDbEntity
  8
0
100
AcDbLine
 10
3.500000000000002
 20
21.96476176578425
 30
0.0
 11
3.500000000000002
 21
22.45465971434089
 31
0.0
  0
LINE
  5
525B
330
51E9
100
AcDbEntity
  8
0
100
AcDbLine
 10
0.0
 20
-22.45265223668405
 30
0.0
 11
-0.6274004205620126
 21
-19.96095514892767
 31
0.0
  0
LINE
  5
525C
330
51E9
100
AcDbEntity
  8
0
100
AcDbLine
 10
-0.7381138020698009
 20
-19.52126113337137
 30
0.0
 11
-1.212840120701346
 21
-17.63590347843715
 31
0.0
  0
LINE
  5
525D
330
51E9
100
AcDbEntity
  8
0
100
AcDbLine
 10
-1.300000000000002
 20
-16.96837358816958
 30
0.0
 11
-1.300000000000002
 21
-15.24162561855104
 31
0.0
  0
LINE
  5
525E
330
51E9
100
AcDbEntity
  8
0
100
AcDbLine
 10
-1.300000000000002
 20
-14.27618659909703
 30
0.0
 11
-1.300000000000002
 21
-12.71048621767509
 31
0.0
  0
LINE
  5
525F
330
51E9
100
AcDbEntity
  8
0
100
AcDbLine
 10
-1.300000000000001
 20
-11.74504719822109
 30
0.0
 11
-1.300000000000001
 21
-10.17934681679914
 31
0.0
  0
LINE
  5
5260
330
51E9
100
AcDbEntity
  8
0
100
AcDbLine
 10
-1.300000000000001
 20
-9.213907797345136
 30
0.0
 11
-1.300000000000001
 21
-7.648207415923189
 31
0.0
  0
LINE
  5
5261
330
51E9
100
AcDbEntity
  8
0
100
AcDbLine
 10
-1.3
 20
-6.682768396469183
 30
0.0
 11
-1.3
 21
-5.117068015047236
 31
0.0
  0
LINE
  5
5262
330
51E9
100
AcDbEntity
  8
0
100
AcDbLine
 10
-1.3
 20
-4.15162899559323
 30
0.0
 11
-1.3
 21
-2.585928614171284
 31
0.0
  0
LINE
  5
5263
330
51E9
100
AcDbEntity
  8
0
100
AcDbLine
 10
-1.3
 20
-1.620489594717278
 30
0.0
 11
-1.299999999999999
 21
-0.2755833464508939
 31
0.0
  0
LINE
  5
5264
330
51E9
100
AcDbEntity
  8
0
100
AcDbLine
 10
1.299999999999992
 20
-13.01061689865906
 30
0.0
 11
1.299999999999992
 21
-12.17266662587285
 31
0.0
  0
LINE
  5
5265
330
51E9
100
AcDbEntity
  8
0
100
AcDbLine
 10
1.299999999999993
 20
-10.47947749778311
 30
0.0
 11
1.299999999999993
 21
-9.641527224996897
 31
0.0
  0
LINE
  5
5266
330
51E9
100
AcDbEntity
  8
0
100
AcDbLine
 10
1.299999999999994
 20
-7.948338096907154
 30
0.0
 11
1.299999999999994
 21
-7.11038782412094
 31
0.0
  0
LINE
  5
5267
330
51E9
100
AcDbEntity
  8
0
100
AcDbLine
 10
1.299999999999994
 20
-5.417198696031206
 30
0.0
 11
1.299999999999994
 21
-4.579248423244992
 31
0.0
  0
LINE
  5
5268
330
51E9
100
AcDbEntity
  8
0
100
AcDbLine
 10
1.299999999999994
 20
-2.886059295155254
 30
0.0
 11
1.299999999999994
 21
-1.766865849331105
 31
0.0
  0
LINE
  5
5269
330
51E9
100
AcDbEntity
  8
0
100
AcDbLine
 10
1.299999999999994
 20
-0.5648454627087363
 30
0.0
 11
1.299999999999994
 21
-0.2755833464508939
 31
0.0
  0
SPLINE
  5
526A
330
51E9
100
AcDbEntity
  8
0
100
AcDbSpline
210
0.0
220
0.0
230
1.0
 70
     8
 71
     3
 72
    14
 73
    10
 74
     0
 42
0.000000001
 43
0.0000000001
 40
1.418115877383924
 40
1.418115877383924
 40
1.418115877383924
 40
1.418115877383924
 40
2.553449081692271
 40
2.553449081692271
 40
2.553449081692271
 40
3.722726375294743
 40
3.722726375294743
 40
3.722726375294743
 40
4.625520821061293
 40
4.625520821061293
 40
4.625520821061293
 40
4.625520821061293
 10
1.594000053505899
 20
-16.84860599347961
 30
0.0
 10
1.125102553692118
 20
-17.3381004988025
 30
0.0
 10
0.3224132128429108
 20
-17.64088213565685
 30
0.0
 10
-0.3680189603575803
 20
-17.69428600634462
 30
0.0
 10
-1.079093612127111
 20
-17.74928654112042
 30
0.0
 10
-1.631990372627472
 20
-17.54850272709052
 30
0.0
 10
-1.739211643993431
 20
-17.3101730594951
 30
0.0
 10
-1.821996770145146
 20
-17.12615965108995
 30
0.0
 10
-1.639898103135834
 20
-16.93402541975651
 30
0.0
 10
-1.296733455120399
 20
-16.83695461114749
 30
0.0
  0
SPLINE
  5
526B
330
51E9
100
AcDbEntity
  8
0
100
AcDbSpline
210
0.0
220
0.0
230
1.0
 70
     8
 71
     3
 72
     8
 73
     4
 74
     0
 42
0.000000001
 43
0.0000000001
 40
6.177009384789153
 40
6.177009384789153
 40
6.177009384789153
 40
6.177009384789153
 40
6.283185307179577
 40
6.283185307179577
 40
6.283185307179577
 40
6.283185307179577
 10
0.9816155441523649
 20
-17.38890495150602
 30
0.0
 10
1.022711221305665
 20
-17.42460361849712
 30
0.0
 10
1.06171228969569
 20
-17.46150072717107
 30
0.0
 10
1.098410028819908
 20
-17.49945956611451
 30
0.0
  0
SPLINE
  5
526C
330
51E9
100
AcDbEntity
  8
0
100
AcDbSpline
210
0.0
220
0.0
230
1.0
 70
     8
 71
     3
 72
    20
 73
    16
 74
     0
 42
0.000000001
 43
0.0000000001
 40
0.0851027329263647
 40
0.0851027329263647
 40
0.0851027329263647
 40
0.0851027329263647
 40
0.1193926424992094
 40
0.1193926424992094
 40
0.179088963748814
 40
0.179088963748814
 40
0.2387852849984187
 40
0.2387852849984187
 40
0.2984816062480233
 40
0.2984816062480233
 40
0.358177927497628
 40
0.358177927497628
 40
0.4178742487472328
 40
0.4178742487472328
 40
0.467042010819098
 40
0.467042010819098
 40
0.467042010819098
 40
0.467042010819098
 10
-1.299999156218022
 20
-16.96837321765851
 30
0.0
 10
-1.299998873000264
 20
-16.99311865122101
 30
0.0
 10
-1.287306567679415
 20
-17.01784206169969
 30
0.0
 10
-1.217929438263727
 20
-17.08115392285441
 30
0.0
 10
-1.136608448552462
 20
-17.11551308121269
 30
0.0
 10
-0.9101918079220022
 20
-17.15703305471803
 30
0.0
 10
-0.7676431906348725
 20
-17.16370180671202
 30
0.0
 10
-0.442684852190688
 20
-17.13702227143015
 30
0.0
 10
-0.2639306919267404
 20
-17.10394911921637
 30
0.0
 10
0.1025282085386143
 20
-16.99174826387066
 30
0.0
 10
0.2861105346733877
 20
-16.91385775264369
 30
0.0
 10
0.6297441146362834
 20
-16.71382563872333
 30
0.0
 10
0.7859297237713502
 20
-16.59390927001922
 30
0.0
 10
1.023447668585284
 20
-16.34338247228082
 30
0.0
 10
1.111136114151904
 20
-16.22046736495476
 30
0.0
 10
1.175499366920768
 20
-16.09032513902176
 30
0.0
  0
LINE
  5
526D
330
51E9
100
AcDbEntity
  8
0
100
AcDbLine
 10
1.098410028819917
 20
-17.49945956611452
 30
0.0
 11
0.9347452005313927
 21
-17.70306138430944
 31
0.0
  0
SPLINE
  5
526E
330
51E9
100
AcDbEntity
  8
0
100
AcDbSpline
210
0.0
220
0.0
230
1.0
 70
     8
 71
     3
 72
    10
 73
     6
 74
     0
 42
0.000000001
 43
0.0000000001
 40
-0.1044680806805205
 40
-0.1044680806805205
 40
-0.1044680806805205
 40
-0.1044680806805205
 40
-0.054004918507628
 40
-0.054004918507628
 40
-0.0150817134650055
 40
-0.0150817134650055
 40
-0.0150817134650055
 40
-0.0150817134650055
 10
1.594000053505899
 20
-16.84860599347961
 30
0.0
 10
1.512587355486039
 20
-16.70954156216062
 30
0.0
 10
1.430920055715619
 20
-16.56655018894476
 30
0.0
 10
1.292745445285176
 20
-16.31512204544449
 30
0.0
 10
1.233121455100225
 20
-16.20331444596705
 30
0.0
 10
1.175499366920775
 20
-16.09032513902176
 30
0.0
  0
SPLINE
  5
526F
330
51E9
100
AcDbEntity
  8
0
100
AcDbSpline
210
0.0
220
0.0
230
1.0
 70
     8
 71
     3
 72
     8
 73
     4
 74
     0
 42
0.000000001
 43
0.0000000001
 40
1.062825975034974
 40
1.062825975034974
 40
1.062825975034974
 40
1.062825975034974
 40
1.111580402427439
 40
1.111580402427439
 40
1.111580402427439
 40
1.111580402427439
 10
0.9261236648038856
 20
-17.76219846398223
 30
0.0
 10
0.9485800041087323
 20
-17.60747552294018
 30
0.0
 10
0.9719171743658932
 20
-17.45239080571982
 30
0.0
 10
0.9955386520234737
 20
-17.29739973153643
 30
0.0
  0
SPLINE
  5
5270
330
51E9
100
AcDbEntity
  8
0
100
AcDbSpline
210
0.0
220
0.0
230
1.0
 70
     8
 71
     3
 72
     8
 73
     4
 74
     0
 42
0.000000001
 43
0.0000000001
 40
2.128980204600875
 40
2.128980204600875
 40
2.128980204600875
 40
2.128980204600875
 40
2.296623994976147
 40
2.296623994976147
 40
2.296623994976147
 40
2.296623994976147
 10
0.9261236648038856
 20
-17.76219846398223
 30
0.0
 10
0.7708882344252039
 20
-18.2217600079919
 30
0.0
 10
0.6232633713785753
 20
-18.67557792957575
 30
0.0
 10
0.4932594790775872
 20
-19.11931429877683
 30
0.0
  0
SPLINE
  5
5271
330
51E9
100
AcDbEntity
  8
0
100
AcDbSpline
210
0.0
220
0.0
230
1.0
 70
     8
 71
     3
 72
    10
 73
     6
 74
     0
 42
0.000000001
 43
0.0000000001
 40
-0.0507675969598581
 40
-0.0507675969598581
 40
-0.0507675969598581
 40
-0.0507675969598581
 40
-0.0252324285000258
 40
-0.0252324285000258
 40
-0.0002590135614549
 40
-0.0002590135614549
 40
-0.0002590135614549
 40
-0.0002590135614549
 10
0.8043464385855214
 20
-19.4964034733621
 30
0.0
 10
0.7532487730040279
 20
-19.43288508313724
 30
0.0
 10
0.7004416403548635
 20
-19.36767754881894
 30
0.0
 10
0.5983639152894239
 20
-19.24345468413834
 30
0.0
 10
0.5449517308001272
 20
-19.17935061941222
 30
0.0
 10
0.4932594790775872
 20
-19.11931429877683
 30
0.0
  0
SPLINE
  5
5272
330
51E9
100
AcDbEntity
  8
0
100
AcDbSpline
210
0.0
220
0.0
230
1.0
 70
     8
 71
     3
 72
    10
 73
     6
 74
     0
 42
0.000000001
 43
0.0000000001
 40
2.376625117372105
 40
2.376625117372105
 40
2.376625117372105
 40
2.376625117372105
 40
2.552974478438969
 40
2.552974478438969
 40
2.747747586946196
 40
2.747747586946196
 40
2.747747586946196
 40
2.747747586946196
 10
0.3200960979906473
 20
-19.74741301805107
 30
0.0
 10
0.2030839793813907
 20
-20.20342761634202
 30
0.0
 10
0.1101536511761951
 20
-20.64678331565556
 30
0.0
 10
-0.0136703697184379
 20
-21.54988073633699
 30
0.0
 10
-0.0401622946848453
 20
-22.00423190366598
 30
0.0
 10
-0.0000000000000061
 20
-22.45265223668405
 30
0.0
  0
SPLINE
  5
5273
330
51E9
100
AcDbEntity
  8
0
100
AcDbSpline
210
0.0
220
0.0
230
1.0
 70
     8
 71
     3
 72
     8
 73
     4
 74
     0
 42
0.000000001
 43
0.0000000001
 40
1.239161192256574
 40
1.239161192256574
 40
1.239161192256574
 40
1.239161192256574
 40
1.373717851009435
 40
1.373717851009435
 40
1.373717851009435
 40
1.373717851009435
 10
1.175499366920775
 20
-16.09032513902176
 30
0.0
 10
1.233507333573851
 20
-15.66506363031489
 30
0.0
 10
1.292506523771317
 20
-15.15695650131315
 30
0.0
 10
1.299342320883278
 20
-14.70424493416706
 30
0.0
  0
LINE
  5
5274
330
51E9
100
AcDbEntity
  8
0
100
AcDbLine
 10
1.29895173512231
 20
-14.72855568687485
 30
0.0
 11
1.484924240491744
 21
-14.74516608108423
 31
0.0
  0
LINE
  5
5275
330
51E9
100
AcDbEntity
  8
0
100
AcDbLine
 10
1.484924240491744
 20
-14.74516608108423
 30
0.0
 11
1.289152003456347
 21
-14.98871005952673
 31
0.0
  0
LINE
  5
5276
330
51E9
100
AcDbEntity
  8
0
100
AcDbLine
 10
0.273998840568356
 20
-20.73936906783599
 30
0.0
 11
0.0
 21
-22.45265223668405
 31
0.0
  0
LINE
  5
5277
330
51E9
100
AcDbEntity
  8
0
100
AcDbLine
 10
0.6231929597459711
 20
-20.30496566974382
 30
0.0
 11
0.273998840568356
 21
-20.73936906783599
 31
0.0
  0
LINE
  5
5278
330
51E9
100
AcDbEntity
  8
0
100
AcDbLine
 10
0.3474106023231943
 20
-20.28033378301159
 30
0.0
 11
0.623192959745971
 21
-20.30496566974382
 31
0.0
  0
LINE
  5
5279
330
51E9
100
AcDbEntity
  8
0
100
AcDbLine
 10
0.5786701279440716
 20
-18.83429462463757
 30
0.0
 11
0.5268120524566841
 21
-19.15855719345621
 31
0.0
  0
LINE
  5
527A
330
51E9
100
AcDbEntity
  8
0
100
AcDbLine
 10
0.4407014972776921
 20
-19.69699656981777
 30
0.0
 11
0.3474106023231943
 21
-20.28033378301159
 31
0.0
  0
LINE
  5
527B
330
51E9
100
AcDbEntity
  8
0
100
AcDbLine
 10
0.9667139268898504
 20
-17.48769694472837
 30
0.0
 11
1.098410028819917
 21
-17.49945956611452
 31
0.0
  0
LINE
  5
527C
330
51E9
100
AcDbEntity
  8
0
100
AcDbLine
 10
-0.8020661030688753
 20
18.55846405612295
 30
0.0
 11
-0.8020661030688744
 21
17.99217355264788
 31
0.0
  0
ELLIPSE
  5
527D
330
51E9
100
AcDbEntity
  8
0
100
AcDbEllipse
 10
0.0000000000000001
 20
16.74383814627899
 30
0.0
 11
1.497078414746462
 21
-1.533054327329143
 31
0.0
210
0.0
220
0.0
230
1.0
 40
0.1894808634043141
 41
2.316274845745824
 42
2.779419568910876
  0
ELLIPSE
  5
527E
330
51E9
100
AcDbEntity
  8
0
100
AcDbEllipse
 10
0.0000000000000001
 20
16.74383814627899
 30
0.0
 11
1.497078414746432
 21
1.533054327329172
 31
0.0
210
0.0
220
0.0
230
1.0
 40
0.1894808634043134
 41
0.3621730846745166
 42
0.8253178078407621
  0
LINE
  5
527F
330
51E9
100
AcDbEntity
  8
0
100
AcDbLine
 10
0.8020661030688758
 20
17.99217355264788
 30
0.0
 11
0.8020661030688767
 21
18.55846405612295
 31
0.0
  0
LINE
  5
5280
330
51E9
100
AcDbEntity
  8
0
100
AcDbLine
 10
2.709955647322596
 20
20.68594194663532
 30
0.0
 11
2.709955647322593
 21
20.15081865749711
 31
0.0
  0
LINE
  5
5281
330
51E9
100
AcDbEntity
  8
0
100
AcDbLine
 10
2.709955647322593
 20
20.15081865749711
 30
0.0
 11
1.297040849899459
 21
18.27794735597258
 31
0.0
  0
SPLINE
  5
5282
330
51E9
100
AcDbEntity
  8
0
100
AcDbSpline
210
0.0
220
0.0
230
1.0
 70
    12
 71
     2
 72
     6
 73
     3
 74
     0
 42
0.000000001
 43
0.0000000001
 40
0.0
 40
0.0
 40
0.0
 40
0.3819135332074239
 40
0.3819135332074239
 40
0.3819135332074239
 10
-2.214980900492007
 20
20.40016814331061
 30
0.0
 41
1.0
 10
-1.230861141095141
 20
19.10506754216799
 30
0.0
 41
1.089871223951229
 10
-0.8020661030688753
 20
18.55846405612295
 30
0.0
 41
1.0
  0
LINE
  5
5283
330
51E9
100
AcDbEntity
  8
0
100
AcDbLine
 10
-2.214980900492007
 20
20.40016814331061
 30
0.0
 11
-2.214980900492007
 21
19.86504485417241
 31
0.0
  0
LINE
  5
5284
330
51E9
100
AcDbEntity
  8
0
100
AcDbLine
 10
-2.214980900492007
 20
19.86504485417241
 30
0.0
 11
-0.8020661030688744
 21
17.99217355264788
 31
0.0
  0
ELLIPSE
  5
5285
330
51E9
100
AcDbEntity
  8
0
100
AcDbEllipse
 10
0.0000000000000001
 20
16.74383814627899
 30
0.0
 11
-3.435917673188533
 21
-3.518485341411215
 31
0.0
210
0.0
220
0.0
230
1.0
 40
0.1894808634043134
 41
3.635170678685568
 42
3.835505521009217
  0
LINE
  5
5286
330
51E9
100
AcDbEntity
  8
0
100
AcDbLine
 10
2.21498090049201
 20
19.86504485417241
 30
0.0
 11
0.8020661030688758
 21
17.99217355264788
 31
0.0
  0
SPLINE
  5
5287
330
51E9
100
AcDbEntity
  8
0
100
AcDbSpline
210
0.0
220
0.0
230
1.0
 70
    12
 71
     2
 72
     6
 73
     3
 74
     0
 42
0.000000001
 43
0.0000000001
 40
0.0
 40
0.0
 40
0.0
 40
0.3819135332074239
 40
0.3819135332074239
 40
0.3819135332074239
 10
0.8020661030688767
 20
18.55846405612295
 30
0.0
 41
1.0
 10
1.230861141094936
 20
19.10506754216772
 30
0.0
 41
1.089871223951879
 10
2.21498090049201
 20
20.40016814331061
 30
0.0
 41
1.0
  0
LINE
  5
5288
330
51E9
100
AcDbEntity
  8
0
100
AcDbLine
 10
2.21498090049201
 20
19.86504485417241
 30
0.0
 11
2.21498090049201
 21
20.40016814331061
 31
0.0
  0
LINE
  5
5289
330
51E9
100
AcDbEntity
  8
0
100
AcDbLine
 10
-2.709955647322591
 20
20.15081865749711
 30
0.0
 11
-1.297040849899457
 21
18.27794735597258
 31
0.0
  0
LINE
  5
528A
330
51E9
100
AcDbEntity
  8
0
100
AcDbLine
 10
-2.709955647322591
 20
20.15081865749711
 30
0.0
 11
-2.70995564732259
 21
20.68594194663532
 31
0.0
  0
ELLIPSE
  5
528B
330
51E9
100
AcDbEntity
  8
0
100
AcDbEllipse
 10
0.0000000000000001
 20
16.74383814627899
 30
0.0
 11
3.435917673188602
 21
-3.518485341411148
 31
0.0
210
0.0
220
0.0
230
1.0
 40
0.1894808634043141
 41
2.447679786166796
 42
2.648014628489914
  0
SPLINE
  5
528C
330
51E9
100
AcDbEntity
  8
0
100
AcDbSpline
210
0.0
220
0.0
230
1.0
 70
     8
 71
     3
 72
     8
 73
     4
 74
     0
 42
0.000000001
 43
0.0000000001
 40
0.0
 40
0.0
 40
0.0
 40
0.0
 40
0.0748440486664845
 40
0.0748440486664845
 40
0.0748440486664845
 40
0.0748440486664845
 10
1.484924240491744
 20
-14.74516608108423
 30
0.0
 10
1.447878326451275
 20
-14.71372747027706
 30
0.0
 10
1.409379117173642
 20
-14.6832018795016
 30
0.0
 10
1.369565342348462
 20
-14.65360690788991
 30
0.0
  0
SPLINE
  5
528D
330
51E9
100
AcDbEntity
  8
0
100
AcDbSpline
210
0.0
220
0.0
230
1.0
 70
     8
 71
     3
 72
    20
 73
    16
 74
     0
 42
0.000000001
 43
0.0000000001
 40
1.452927608033279
 40
1.452927608033279
 40
1.452927608033279
 40
1.452927608033279
 40
2.274205514078826
 40
2.274205514078826
 40
2.274205514078826
 40
3.408051693561475
 40
3.408051693561475
 40
3.408051693561475
 40
4.539841948284862
 40
4.539841948284862
 40
4.539841948284862
 40
5.66966068096913
 40
5.66966068096913
 40
5.66966068096913
 40
6.358029355845756
 40
6.358029355845756
 40
6.358029355845756
 40
6.358029355845756
 10
-1.295631799257241
 20
-14.06712310983407
 30
0.0
 10
-1.74222867714704
 20
-14.16446147915497
 30
0.0
 10
-2.045863427694268
 20
-14.36652548733841
 30
0.0
 10
-2.092945651238242
 20
-14.58704391271254
 30
0.0
 10
-2.157946790187573
 20
-14.89148893951215
 30
0.0
 10
-1.730713752793971
 20
-15.20737643076514
 30
0.0
 10
-1.041514339674749
 20
-15.28238989385714
 30
0.0
 10
-0.3535646041247963
 20
-15.35726734023113
 30
0.0
 10
0.5598522041510917
 20
-15.1805082805432
 30
0.0
 10
1.207924310559266
 20
-14.76542844009711
 30
0.0
 10
1.854867507758875
 20
-14.35107164798089
 30
0.0
 10
2.204320648660484
 20
-13.71273772231417
 30
0.0
 10
2.069058742594406
 20
-13.11114127024856
 30
0.0
 10
1.986647240336183
 20
-12.74460446169788
 30
0.0
 10
1.726906270797846
 20
-12.40021393876791
 30
0.0
 10
1.364054432498509
 20
-12.12529241697412
 30
0.0
  0
SPLINE
  5
528E
330
51E9
100
AcDbEntity
  8
0
100
AcDbSpline
210
0.0
220
0.0
230
1.0
 70
     8
 71
     3
 72
    23
 73
    19
 74
     0
 42
0.000000001
 43
0.0000000001
 40
7.736112915212864
 40
7.736112915212864
 40
7.736112915212864
 40
7.736112915212864
 40
7.923713990406612
 40
7.923713990406612
 40
7.923713990406612
 40
9.04811040185984
 40
9.04811040185984
 40
9.04811040185984
 40
10.17085910653196
 40
10.17085910653196
 40
10.17085910653196
 40
11.29203797442193
 40
11.29203797442193
 40
11.29203797442193
 40
12.41172377791284
 40
12.41172377791284
 40
12.41172377791284
 40
12.64121466302532
 40
12.64121466302532
 40
12.64121466302532
 40
12.64121466302532
 10
-1.299047482662734
 20
-11.53528352418508
 30
0.0
 10
-1.402658293693865
 20
-11.55625766653221
 30
0.0
 10
-1.498616599852559
 20
-11.58294345598106
 30
0.0
 10
-1.584778774393886
 20
-11.61496877954087
 30
0.0
 10
-2.101196069749048
 20
-11.80691415538203
 30
0.0
 10
-2.239834630041988
 20
-12.17339075658853
 30
0.0
 10
-1.927014760995776
 20
-12.43939264268981
 30
0.0
 10
-1.614653302714881
 20
-12.70500472577583
 30
0.0
 10
-0.8678611864396494
 20
-12.84965145220128
 30
0.0
 10
-0.082544466607666
 20
-12.71672314128714
 30
0.0
 10
0.7016742167115156
 20
-12.5839806918672
 30
0.0
 10
1.485330022936192
 20
-12.17361045661786
 30
0.0
 10
1.853951023188815
 20
-11.62302848974335
 30
0.0
 10
2.222081133978587
 20
-11.07317972820927
 30
0.0
 10
2.158163355969544
 20
-10.4032685527948
 30
0.0
 10
1.695927743908531
 20
-9.887471221634086
 30
0.0
 10
1.601187898666535
 20
-9.781753362483179
 30
0.0
 10
1.490674690700038
 20
-9.683264498158138
 30
0.0
 10
1.368193749288751
 20
-9.592884531927236
 30
0.0
  0
SPLINE
  5
528F
330
51E9
100
AcDbEntity
  8
0
100
AcDbSpline
210
0.0
220
0.0
230
1.0
 70
     8
 71
     3
 72
    20
 73
    16
 74
     0
 42
0.000000001
 43
0.0000000001
 40
14.01929822239245
 40
14.01929822239245
 40
14.01929822239245
 40
14.01929822239245
 40
14.64691817159817
 40
14.64691817159817
 40
14.64691817159817
 40
15.76257537833052
 40
15.76257537833052
 40
15.76257537833052
 40
16.87703686989037
 40
16.87703686989037
 40
16.87703686989037
 40
18.01712965401556
 40
18.01712965401556
 40
18.01712965401556
 40
18.92439997020535
 40
18.92439997020535
 40
18.92439997020535
 40
18.92439997020535
 10
-1.294654428505632
 20
-9.00621523948509
 30
0.0
 10
-1.638422332027018
 20
-9.07948978841099
 30
0.0
 10
-1.901150272034124
 20
-9.21228932761859
 30
0.0
 10
-2.020723579518896
 20
-9.372085959878821
 30
0.0
 10
-2.233277088050665
 20
-9.656140449571669
 30
0.0
 10
-1.983197748130425
 20
-10.00434348409285
 30
0.0
 10
-1.401655868565196
 20
-10.15547897969256
 30
0.0
 10
-0.8207372614932033
 20
-10.30645249452963
 30
0.0
 10
0.0626912796618205
 20
-10.24622248757184
 30
0.0
 10
0.7860955329627833
 20
-9.927970989021218
 30
0.0
 10
1.526137226139233
 20
-9.602400083447125
 30
0.0
 10
2.060160554581425
 20
-9.014750719870544
 30
0.0
 10
2.097678203256153
 20
-8.401404203317316
 30
0.0
 10
2.127534237299852
 20
-7.913311395648032
 30
0.0
 10
1.841901222966828
 20
-7.424288341933329
 30
0.0
 10
1.36668296896759
 20
-7.061068691761205
 30
0.0
  0
SPLINE
  5
5290
330
51E9
100
AcDbEntity
  8
0
100
AcDbSpline
210
0.0
220
0.0
230
1.0
 70
     8
 71
     3
 72
    20
 73
    16
 74
     0
 42
0.000000001
 43
0.0000000001
 40
20.30248352957204
 40
20.30248352957204
 40
20.30248352957204
 40
20.30248352957204
 40
21.41168188525815
 40
21.41168188525815
 40
21.41168188525815
 40
22.53575003966856
 40
22.53575003966856
 40
22.53575003966856
 40
23.6566288457265
 40
23.6566288457265
 40
23.6566288457265
 40
24.77462525070427
 40
24.77462525070427
 40
24.77462525070427
 40
25.20758527738531
 40
25.20758527738531
 40
25.20758527738531
 40
25.20758527738531
 10
-1.299968359655365
 20
-6.471585831726898
 30
0.0
 10
-1.908493734316611
 20
-6.600510002976052
 30
0.0
 10
-2.214394450134419
 20
-6.934990439146324
 30
0.0
 10
-2.055628979016602
 20
-7.224851550475173
 30
0.0
 10
-1.894735114372246
 20
-7.518598509958556
 30
0.0
 10
-1.264946276563832
 20
-7.74416968994708
 30
0.0
 10
-0.5008004709994604
 20
-7.701565236066589
 30
0.0
 10
0.2611772034276171
 20
-7.659081664931735
 30
0.0
 10
1.118792706096207
 20
-7.344679471412236
 30
0.0
 10
1.618661501095058
 20
-6.844999919192393
 30
0.0
 10
2.117244856181176
 20
-6.346605320237141
 30
0.0
 10
2.235507783741268
 20
-5.681099409259391
 30
0.0
 10
1.911200274473879
 20
-5.119762604158504
 30
0.0
 10
1.785607573781732
 20
-4.90237693365775
 30
0.0
 10
1.596040987648104
 20
-4.703623402578283
 30
0.0
 10
1.365442252743808
 20
-4.532290356789494
 30
0.0
  0
SPLINE
  5
5291
330
51E9
100
AcDbEntity
  8
0
100
AcDbSpline
210
0.0
220
0.0
230
1.0
 70
     8
 71
     3
 72
    20
 73
    16
 74
     0
 42
0.000000001
 43
0.0000000001
 40
26.58566883675163
 40
26.58566883675163
 40
26.58566883675163
 40
26.58566883675163
 40
27.02921913463595
 40
27.02921913463595
 40
27.02921913463595
 40
28.1598332339947
 40
28.1598332339947
 40
28.1598332339947
 40
29.28322929081174
 40
29.28322929081174
 40
29.28322929081174
 40
30.40067033128091
 40
30.40067033128091
 40
30.40067033128091
 40
31.53379525465955
 40
31.53379525465955
 40
31.53379525465955
 40
31.53379525465955
 10
-1.295623739119198
 20
-3.944406553125472
 30
0.0
 10
-1.540319268624021
 20
-3.994779725453376
 30
0.0
 10
-1.744213929520866
 20
-4.074908490021034
 30
0.0
 10
-1.881974395163273
 20
-4.175995831948924
 30
0.0
 10
-2.233127185573872
 20
-4.433668467037952
 30
0.0
 10
-2.136877837623726
 20
-4.806165682426879
 30
0.0
 10
-1.644854412533089
 20
-5.012244142866628
 30
0.0
 10
-1.155972152952274
 20
-5.217006961572181
 30
0.0
 10
-0.3013720938834187
 20
-5.239692937113948
 30
0.0
 10
0.4654465917166643
 20
-4.988213591615182
 30
0.0
 10
1.22820044392082
 20
-4.738067314364702
 30
0.0
 10
1.866549482373267
 20
-4.221801948912542
 30
0.0
 10
2.044767372071892
 20
-3.63202016591309
 30
0.0
 10
2.225486645211055
 20
-3.033960480016117
 30
0.0
 10
1.922618939813831
 20
-2.382853531454904
 30
0.0
 10
1.299998257612946
 20
-1.947117889079947
 30
0.0
  0
SPLINE
  5
5292
330
51E9
100
AcDbEntity
  8
0
100
AcDbSpline
210
0.0
220
0.0
230
1.0
 70
     8
 71
     3
 72
    11
 73
     7
 74
     0
 42
0.000000001
 43
0.0000000001
 40
32.86885414393121
 40
32.86885414393121
 40
32.86885414393121
 40
32.86885414393121
 40
33.79372408260346
 40
33.79372408260346
 40
33.79372408260346
 40
34.67972888599395
 40
34.67972888599395
 40
34.67972888599395
 40
34.67972888599395
 10
-1.297399790689897
 20
-1.410363329283805
 30
0.0
 10
-1.79977808868716
 20
-1.519905580020028
 30
0.0
 10
-2.113494916856083
 20
-1.765598889299866
 30
0.0
 10
-2.099509992404088
 20
-2.015100840544805
 30
0.0
 10
-2.086112746238525
 20
-2.254118153158155
 30
0.0
 10
-1.781569362420155
 20
-2.485960374144569
 30
0.0
 10
-1.292828449943529
 20
-2.587429042437312
 30
0.0
  0
SPLINE
  5
5293
330
51E9
100
AcDbEntity
  8
0
100
AcDbSpline
210
0.0
220
0.0
230
1.0
 70
     8
 71
     3
 72
    17
 73
    13
 74
     0
 42
0.000000001
 43
0.0000000001
 40
2.356194490192344
 40
2.356194490192344
 40
2.356194490192344
 40
2.356194490192344
 40
2.563572528324774
 40
2.563572528324774
 40
2.563572528324774
 40
3.84124384212024
 40
3.84124384212024
 40
3.84124384212024
 40
5.116336205228971
 40
5.116336205228971
 40
5.116336205228971
 40
5.497787143782137
 40
5.497787143782137
 40
5.497787143782137
 40
5.497787143782137
 10
-1.297551004165926
 20
-14.27669572565976
 30
0.0
 10
-1.298857830140359
 20
-14.30043778222412
 30
0.0
 10
-1.290648858945215
 20
-14.32425689171973
 30
0.0
 10
-1.272146364035792
 20
-14.34718119959405
 30
0.0
 10
-1.158151134876954
 20
-14.48841954297603
 30
0.0
 10
-0.6629579386011465
 20
-14.56993345405666
 30
0.0
 10
-0.1113345182203237
 20
-14.42574214190521
 30
0.0
 10
0.4391754627465823
 20
-14.28184187666033
 30
0.0
 10
1.000870417033334
 20
-13.9109905728545
 30
0.0
 10
1.206563118063354
 20
-13.44368924569291
 30
0.0
 10
1.268097228165107
 20
-13.30389346697901
 30
0.0
 10
1.296285414093519
 20
-13.15762258058712
 30
0.0
 10
1.29403852958616
 20
-13.01132717733415
 30
0.0
  0
SPLINE
  5
5294
330
51E9
100
AcDbEntity
  8
0
100
AcDbSpline
210
0.0
220
0.0
230
1.0
 70
     8
 71
     3
 72
    17
 73
    13
 74
     0
 42
0.000000001
 43
0.0000000001
 40
8.63937979737193
 40
8.63937979737193
 40
8.63937979737193
 40
8.63937979737193
 40
8.927329935836764
 40
8.927329935836764
 40
8.927329935836764
 40
10.19328590121459
 40
10.19328590121459
 40
10.19328590121459
 40
11.45724214115993
 40
11.45724214115993
 40
11.45724214115993
 40
11.78097245096172
 40
11.78097245096172
 40
11.78097245096172
 40
11.78097245096172
 10
-1.295965837565433
 20
-11.7457077865787
 30
0.0
 10
-1.297846641502526
 20
-11.77872576527308
 30
0.0
 10
-1.281911917945612
 20
-11.81178812234916
 30
0.0
 10
-1.246476431631712
 20
-11.84219663178181
 30
0.0
 10
-1.090686385742832
 20
-11.97588586742426
 30
0.0
 10
-0.5704589165677541
 20
-12.03415946141864
 30
0.0
 10
-0.0219562458582146
 20
-11.86951475536774
 30
0.0
 10
0.5256800007651825
 20
-11.70513012487635
 30
0.0
 10
1.058241153933439
 20
-11.31816814833757
 30
0.0
 10
1.232472001385904
 20
-10.84864573864263
 30
0.0
 10
1.277096810726814
 20
-10.72838949056556
 30
0.0
 10
1.297322332497532
 20
-10.60426519166929
 30
0.0
 10
1.295284848505232
 20
-10.48015927177284
 30
0.0
  0
SPLINE
  5
5295
330
51E9
100
AcDbEntity
  8
0
100
AcDbSpline
210
0.0
220
0.0
230
1.0
 70
     8
 71
     3
 72
    17
 73
    13
 74
     0
 42
0.000000001
 43
0.0000000001
 40
14.92256510455152
 40
14.92256510455152
 40
14.92256510455152
 40
14.92256510455152
 40
15.27961740216909
 40
15.27961740216909
 40
15.27961740216909
 40
16.57272137490451
 40
16.57272137490451
 40
16.57272137490451
 40
17.86361229000759
 40
17.86361229000759
 40
17.86361229000759
 40
18.06415775814131
 40
18.06415775814131
 40
18.06415775814131
 40
18.06415775814131
 10
-1.294199926691196
 20
-9.214705691770564
 30
0.0
 10
-1.296574832224629
 20
-9.255677936845426
 30
0.0
 10
-1.272088233170849
 20
-9.296651326050291
 30
0.0
 10
-1.218010502531894
 20
-9.332401228316067
 30
0.0
 10
-1.02216208258797
 20
-9.461873411951993
 30
0.0
 10
-0.4555217852058405
 20
-9.496633077711976
 30
0.0
 10
0.1030596687768613
 20
-9.29734641291294
 30
0.0
 10
0.6606851493992778
 20
-9.098400813398557
 30
0.0
 10
1.162513600204124
 20
-8.668471243743169
 30
0.0
 10
1.273945483531794
 20
-8.178640054675035
 30
0.0
 10
1.291256906941405
 20
-8.102542668002886
 30
0.0
 10
1.298931470561023
 20
-8.025646750012178
 30
0.0
 10
1.297683282144185
 20
-7.948828295937171
 30
0.0
  0
SPLINE
  5
5296
330
51E9
100
AcDbEntity
  8
0
100
AcDbSpline
210
0.0
220
0.0
230
1.0
 70
     8
 71
     3
 72
    17
 73
    13
 74
     0
 42
0.000000001
 43
0.0000000001
 40
21.2057504117311
 40
21.2057504117311
 40
21.2057504117311
 40
21.2057504117311
 40
21.69075231098572
 40
21.69075231098572
 40
21.69075231098572
 40
22.95707588757903
 40
22.95707588757903
 40
22.95707588757903
 40
24.21946783469214
 40
24.21946783469214
 40
24.21946783469214
 40
24.3473430653209
 40
24.3473430653209
 40
24.3473430653209
 40
24.3473430653209
 10
-1.292401144039881
 20
-6.683297622514849
 30
0.0
 10
-1.294315051117437
 20
-6.739232989890533
 30
0.0
 10
-1.24805847645595
 20
-6.795085065564361
 30
0.0
 10
-1.15007628275612
 20
-6.837305047398323
 30
0.0
 10
-0.8942480846416051
 20
-6.94753999386318
 30
0.0
 10
-0.3064073486541996
 20
-6.942544099700564
 30
0.0
 10
0.2334151927846215
 20
-6.715616520709608
 30
0.0
 10
0.7715617153470502
 20
-6.489393497154503
 30
0.0
 10
1.219623696044771
 20
-6.047196803539485
 30
0.0
 10
1.289385627255911
 20
-5.564428462522017
 30
0.0
 10
1.296452230511051
 20
-5.515525969846071
 30
0.0
 10
1.299554498129205
 20
-5.466470789139492
 30
0.0
 10
1.298910283424822
 20
-5.417479624990235
 30
0.0
  0
SPLINE
  5
5297
330
51E9
100
AcDbEntity
  8
0
100
AcDbSpline
210
0.0
220
0.0
230
1.0
 70
     8
 71
     3
 72
    17
 73
    13
 74
     0
 42
0.000000001
 43
0.0000000001
 40
27.48893571891069
 40
27.48893571891069
 40
27.48893571891069
 40
27.48893571891069
 40
28.09101580515785
 40
28.09101580515785
 40
28.09101580515785
 40
29.35796133732726
 40
29.35796133732726
 40
29.35796133732726
 40
30.617338863934
 40
30.617338863934
 40
30.617338863934
 40
30.63052837250049
 40
30.63052837250049
 40
30.63052837250049
 40
30.63052837250049
 10
-1.29131689233648
 20
-4.151773478276097
 30
0.0
 10
-1.291928091334304
 20
-4.221343833650115
 30
0.0
 10
-1.219170706458227
 20
-4.290871729759424
 30
0.0
 10
-1.071407122759677
 20
-4.334168080112932
 30
0.0
 10
-0.7604710588365029
 20
-4.425275756471283
 30
0.0
 10
-0.1427989334987828
 20
-4.379390827128109
 30
0.0
 10
0.3819765585113259
 20
-4.116128998568227
 30
0.0
 10
0.9036173428786552
 20
-3.854439745097324
 30
0.0
 10
1.292689220334726
 20
-3.385432497438358
 30
0.0
 10
1.299886925600693
 20
-2.901271770132294
 30
0.0
 10
1.299962307440736
 20
-2.896201136485556
 30
0.0
 10
1.299995634331195
 20
-2.891131584436767
 30
0.0
 10
1.299987185837051
 20
-2.886063337209452
 30
0.0
  0
SPLINE
  5
5298
330
51E9
100
AcDbEntity
  8
0
100
AcDbSpline
210
0.0
220
0.0
230
1.0
 70
     8
 71
     3
 72
    11
 73
     7
 74
     0
 42
0.000000001
 43
0.0000000001
 40
33.77212102609028
 40
33.77212102609028
 40
33.77212102609028
 40
33.77212102609028
 40
34.42029993131169
 40
34.42029993131169
 40
34.42029993131169
 40
34.67972888599395
 40
34.67972888599395
 40
34.67972888599395
 40
34.67972888599395
 10
-1.291603638092654
 20
-1.620426541754991
 30
0.0
 10
-1.291311371259137
 20
-1.695339755122846
 30
0.0
 10
-1.205915731594435
 20
-1.770275040115603
 30
0.0
 10
-1.036339953588101
 20
-1.812512063681559
 30
0.0
 10
-0.9684684655263488
 20
-1.829417129218775
 30
0.0
 10
-0.8889124595671624
 20
-1.84120704174953
 30
0.0
 10
-0.8003223737745578
 20
-1.846328427933903
 30
0.0
  0
LINE
  5
5299
330
51E9
100
AcDbEntity
  8
0
100
AcDbLine
 10
-0.8003223737745653
 20
-1.846328427933898
 30
0.0
 11
-1.292828449943529
 21
-2.587429042437312
 31
0.0
  0
SPLINE
  5
529A
330
51E9
100
AcDbEntity
  8
0
100
AcDbSpline
210
0.0
220
0.0
230
1.0
 70
     8
 71
     3
 72
    14
 73
    10
 74
     0
 42
0.000000001
 43
0.0000000001
 40
0.0
 40
0.0
 40
0.0
 40
0.0
 40
1.140855774200599
 40
1.140855774200599
 40
1.140855774200599
 40
2.289013738354336
 40
2.289013738354336
 40
2.289013738354336
 40
2.686483153121305
 40
2.686483153121305
 40
2.686483153121305
 40
2.686483153121305
 10
-1.29282844994353
 20
-2.587429042437312
 30
0.0
 10
-0.6168374450568051
 20
-2.683594886124827
 30
0.0
 10
0.2632830873756903
 20
-2.513595635551091
 30
0.0
 10
0.860843140781834
 20
-2.132527864809015
 30
0.0
 10
1.462227951985637
 20
-1.749021022179051
 30
0.0
 10
1.751998516250891
 20
-1.172082588797906
 30
0.0
 10
1.641223126141106
 20
-0.657679509089939
 30
0.0
 10
1.602874892838582
 20
-0.4796034103045699
 30
0.0
 10
1.519044454841098
 20
-0.3115200852850952
 30
0.0
 10
1.403757645679159
 20
-0.1584305840655764
 30
0.0
  0
SPLINE
  5
529B
330
51E9
100
AcDbEntity
  8
0
100
AcDbSpline
210
0.0
220
0.0
230
1.0
 70
     8
 71
     3
 72
    18
 73
    14
 74
     0
 42
0.000000001
 43
0.0000000001
 40
0.0
 40
0.0
 40
0.0
 40
0.0
 40
0.0550986093957229
 40
0.0550986093957229
 40
0.1101972187914459
 40
0.1101972187914459
 40
0.1652958281871688
 40
0.1652958281871688
 40
0.2203944375828916
 40
0.2203944375828916
 40
0.2754930469786147
 40
0.2754930469786147
 40
0.3034975812808728
 40
0.3034975812808728
 40
0.3034975812808728
 40
0.3034975812808728
 10
-0.8003223737745656
 20
-1.846328427933898
 30
0.0
 10
-0.6613547438450417
 20
-1.86710922006128
 30
0.0
 10
-0.5017386744794871
 20
-1.871341605639305
 30
0.0
 10
-0.1606829018522928
 20
-1.839422834753663
 30
0.0
 10
0.0172174182356065
 20
-1.803588688086246
 30
0.0
 10
0.3660589927147792
 20
-1.689772281507595
 30
0.0
 10
0.5333800650182321
 20
-1.612956942571379
 30
0.0
 10
0.8334095203388335
 20
-1.422113129766016
 30
0.0
 10
0.9630042800397484
 20
-1.310050946146352
 30
0.0
 10
1.165543234221573
 20
-1.059547294547753
 30
0.0
 10
1.236385535041701
 20
-0.9236912502460903
 30
0.0
 10
1.290824332773814
 20
-0.7101843899097072
 30
0.0
 10
1.299999267391744
 20
-0.6375180109955015
 30
0.0
 10
1.299999290725589
 20
-0.5648454789640267
 30
0.0
  0
SPLINE
  5
529C
330
51E9
100
AcDbEntity
  8
0
100
AcDbSpline
210
0.0
220
0.0
230
1.0
 70
     8
 71
     3
 72
    12
 73
     8
 74
     0
 42
0.000000001
 43
0.0000000001
 40
0.1208536808685725
 40
0.1208536808685725
 40
0.1208536808685725
 40
0.1208536808685725
 40
0.1245989267621
 40
0.1245989267621
 40
0.1639741273576343
 40
0.1639741273576343
 40
0.1938771651741211
 40
0.1938771651741211
 40
0.1938771651741211
 40
0.1938771651741211
 10
-0.3834626666041464
 20
-19.91772579508842
 30
0.0
 10
-0.3913741710055743
 20
-19.91952131790267
 30
0.0
 10
-0.3991424455885209
 20
-19.92123365757091
 30
0.0
 10
-0.4868604020160249
 20
-19.94002958591747
 30
0.0
 10
-0.5481491956772463
 20
-19.94790518870478
 30
0.0
 10
-0.6141091707815138
 20
-19.95616920267384
 30
0.0
 10
-0.6281817875717972
 20
-19.95783861151388
 30
0.0
 10
-0.6274012915446527
 20
-19.96094656154541
 30
0.0
  0
SPLINE
  5
529D
330
51E9
100
AcDbEntity
  8
0
100
AcDbSpline
210
0.0
220
0.0
230
1.0
 70
     8
 71
     3
 72
    14
 73
    10
 74
     0
 42
0.000000001
 43
0.0000000001
 40
0.1219096538423546
 40
0.1219096538423546
 40
0.1219096538423546
 40
0.1219096538423546
 40
1.399546120906669
 40
1.399546120906669
 40
1.399546120906669
 40
2.680930343374184
 40
2.680930343374184
 40
2.680930343374184
 40
2.748714261154553
 40
2.748714261154553
 40
2.748714261154553
 40
2.748714261154553
 10
0.8043464385855141
 20
-19.4964034733621
 30
0.0
 10
0.2892539652763295
 20
-19.84282879941123
 30
0.0
 10
-0.3829182211583765
 20
-19.96046399209218
 30
0.0
 10
-0.7729398656384311
 20
-19.91993246941566
 30
0.0
 10
-1.164105580253571
 20
-19.87928205358212
 30
0.0
 10
-1.248481906514797
 20
-19.70409472893836
 30
0.0
 10
-1.029861546298399
 20
-19.63249301871708
 30
0.0
 10
-1.018296752334036
 20
-19.62870536131233
 30
0.0
 10
-1.005975386971553
 20
-19.62526067819722
 30
0.0
 10
-0.9929499358950451
 20
-19.62216562759819
 30
0.0
  0
SPLINE
  5
529E
330
51E9
100
AcDbEntity
  8
0
100
AcDbSpline
210
0.0
220
0.0
230
1.0
 70
     8
 71
     3
 72
     8
 73
     4
 74
     0
 42
0.000000001
 43
0.0000000001
 40
4.308450854823732
 40
4.308450854823732
 40
4.308450854823732
 40
4.308450854823732
 40
4.661718131133248
 40
4.661718131133248
 40
4.661718131133248
 40
4.661718131133248
 10
0.3856020640288859
 20
-20.0394560221797
 30
0.0
 10
0.4784723730699615
 20
-20.12018211715106
 30
0.0
 10
0.5592928702584372
 20
-20.20968408883342
 30
0.0
 10
0.6231929597459743
 20
-20.30496566974382
 30
0.0
  0
SPLINE
  5
529F
330
51E9
100
AcDbEntity
  8
0
100
AcDbSpline
210
0.0
220
0.0
230
1.0
 70
     8
 71
     3
 72
    18
 73
    14
 74
     0
 42
0.000000001
 43
0.0000000001
 40
0.2958652615809166
 40
0.2958652615809166
 40
0.2958652615809166
 40
0.2958652615809166
 40
0.3146384564017793
 40
0.3146384564017793
 40
0.3573075434508828
 40
0.3573075434508828
 40
0.4010760595425625
 40
0.4010760595425625
 40
0.4459915586278461
 40
0.4459915586278461
 40
0.4777634970720052
 40
0.4777634970720052
 40
0.4902538628414252
 40
0.4902538628414252
 40
0.4902538628414252
 40
0.4902538628414252
 10
-0.7381144847796395
 20
-19.52124590567695
 30
0.0
 10
-0.7376603864038484
 20
-19.523051469084
 30
0.0
 10
-0.731701525945923
 20
-19.5252393282631
 30
0.0
 10
-0.6941665562199877
 20
-19.53138504927544
 30
0.0
 10
-0.6404300996637787
 20
-19.53389607460748
 30
0.0
 10
-0.4844649007035719
 20
-19.52153751757539
 30
0.0
 10
-0.3832683407827369
 20
-19.50637466946305
 30
0.0
 10
-0.1492322384499142
 20
-19.44725491375472
 30
0.0
 10
-0.0188711692096612
 20
-19.40335597895767
 30
0.0
 10
0.2072037188936481
 20
-19.3000061576479
 30
0.0
 10
0.3004550589235906
 20
-19.24953365909172
 30
0.0
 10
0.4252229065289127
 20
-19.16837479803615
 30
0.0
 10
0.4596945305355919
 20
-19.14437922714511
 30
0.0
 10
0.4932594790777801
 20
-19.11931429877675
 30
0.0
  0
SPLINE
  5
52A0
330
51E9
100
AcDbEntity
  8
0
100
AcDbSpline
210
0.0
220
0.0
230
1.0
 70
     8
 71
     3
 72
     8
 73
     4
 74
     0
 42
0.000000001
 43
0.0000000001
 40
0.000914021153363
 40
0.000914021153363
 40
0.000914021153363
 40
0.000914021153363
 40
0.0293782063434546
 40
0.0293782063434546
 40
0.0293782063434546
 40
0.0293782063434546
 10
-0.6270730821872923
 20
-19.96225516092682
 30
0.0
 10
-0.6687545649172479
 20
-19.94369420030186
 30
0.0
 10
-0.7027657451674884
 20
-19.93157787324846
 30
0.0
 10
-0.7267219687726088
 20
-19.92401394657825
 30
0.0
  0
SPLINE
  5
52A1
330
51E9
100
AcDbEntity
  8
0
100
AcDbSpline
210
0.0
220
0.0
230
1.0
 70
     8
 71
     3
 72
    10
 73
     6
 74
     0
 42
0.000000001
 43
0.0000000001
 40
0.0
 40
0.0
 40
0.0
 40
0.0
 40
0.0488122554050769
 40
0.0488122554050769
 40
0.0776633884751101
 40
0.0776633884751101
 40
0.0776633884751101
 40
0.0776633884751101
 10
-0.9930314401121481
 20
-19.62197617088108
 30
0.0
 10
-0.9747492018236986
 20
-19.61744657486617
 30
0.0
 10
-0.9308999039100068
 20
-19.60532730259675
 30
0.0
 10
-0.8313240468612628
 20
-19.56539362376201
 30
0.0
 10
-0.7873672864858471
 20
-19.54585711063734
 30
0.0
 10
-0.7383239028335583
 20
-19.52042672611869
 30
0.0
  0
ENDBLK
  5
51EB
330
51E9
100
AcDbEntity
  8
0
100
AcDbBlockEnd
  0
ENDSEC
  0
SECTION
  2
ENTITIES
  0
INSERT
  5
52A2
330
1F
100
AcDbEntity
  8
0
100
AcDbBlockReference
  2
DSIX442X55T-20-Front
 10
0.0
 20
0.0
 30
0.0
  0
INSERT
  5
52A3
330
1F
100
AcDbEntity
  8
0
100
AcDbBlockReference
  2
DSIX442X55T-20-Top
 10
0.0
 20
-69.39280378931886
 30
0.0
  0
INSERT
  5
52A4
330
1F
100
AcDbEntity
  8
0
100
AcDbBlockReference
  2
DSIX442X55T-20-ISO
 10
17.89280378931886
 20
-90.36818944582345
 30
0.0
  0
MTEXT
  5
52A5
330
1F
100
AcDbEntity
  8
0
100
AcDbMText
 10
0.0
 20
-83.78560757863771
 30
0.0
 40
1.308436708119896
 41
0.0
 71
     5
 72
     5
  1
DSIX44.2X55T-20
 73
     1
 44
1.0
1001
ACAD
1000
MTEXTBEGIN
1070
    73
1070
     1
1070
    44
1040
1.0
1070
    74
1070
     0
1000
MTEXTEND
  0
ENDSEC
  0
SECTION
  2
OBJECTS
  0
DICTIONARY
  5
C
330
0
100
AcDbDictionary
281
     1
  3
ACAD_CIP_PREVIOUS_PRODUCT_INFO
350
216
  3
ACAD_COLOR
350
6B
  3
ACAD_DETAILVIEWSTYLE
350
21B
  3
ACAD_GROUP
350
D
  3
ACAD_LAYOUT
350
1A
  3
ACAD_MATERIAL
350
6A
  3
ACAD_MLEADERSTYLE
350
12D
  3
ACAD_MLINESTYLE
350
17
  3
ACAD_PLOTSETTINGS
350
19
  3
ACAD_PLOTSTYLENAME
350
E
  3
ACAD_SCALELIST
350
10C
  3
ACAD_SECTIONVIEWSTYLE
350
219
  3
ACAD_TABLESTYLE
350
7E
  3
ACAD_VISUALSTYLE
350
EF
  3
ACDB_RECOMPOSE_DATA
350
53A6
  3
AcDbVariableDictionary
350
5E
  3
DWGPROPS
350
53A7
  0
DICTIONARY
  5
52F6
330
8
100
AcDbDictionary
280
     1
281
     1
  0
DICTIONARY
  5
1FF
330
2
100
AcDbDictionary
280
     1
281
     1
  3
ACAD_LAYERSTATES
360
200
  0
DICTIONARY
  5
13C
330
10
100
AcDbDictionary
280
     1
281
     1
  0
DICTIONARY
  5
1CE
330
1F
100
AcDbDictionary
280
     1
281
     1
  3
ACAD_LAYOUTSELFREF
360
52FE
  0
DICTIONARY
  5
52A9
330
D2
100
AcDbDictionary
280
     1
281
     1
  3
ACAD_LAYOUTSELFREF
360
5307
  0
DICTIONARY
  5
52AB
330
D6
100
AcDbDictionary
280
     1
281
     1
  3
ACAD_LAYOUTSELFREF
360
530A
  0
XRECORD
  5
216
102
{ACAD_REACTORS
330
C
102
}
330
C
100
AcDbXrecord
280
     1
300
ACD
300
2021
300
87393ACD_2021_0F
  0
DICTIONARY
  5
6B
102
{ACAD_REACTORS
330
C
102
}
330
C
100
AcDbDictionary
281
     1
  0
DICTIONARY
  5
21B
102
{ACAD_REACTORS
330
C
102
}
330
C
100
AcDbDictionary
281
     1
  3
Metric50
350
21C
  0
DICTIONARY
  5
D
102
{ACAD_REACTORS
330
C
102
}
330
C
100
AcDbDictionary
281
     1
  0
DICTIONARY
  5
1A
102
{ACAD_REACTORS
330
C
102
}
330
C
100
AcDbDictionary
281
     1
  3
Layout1
350
D3
  3
Layout2
350
D7
  3
Model
350
22
  0
DICTIONARY
  5
6A
102
{ACAD_REACTORS
330
C
102
}
330
C
100
AcDbDictionary
281
     1
  3
ByBlock
350
ED
  3
ByLayer
350
EC
  3
Global
350
EE
  0
DICTIONARY
  5
12D
102
{ACAD_REACTORS
330
C
102
}
330
C
100
AcDbDictionary
281
     1
  3
Standard
350
12E
  0
DICTIONARY
  5
17
102
{ACAD_REACTORS
330
C
102
}
330
C
100
AcDbDictionary
281
     1
  3
Standard
350
18
  0
DICTIONARY
  5
19
102
{ACAD_REACTORS
330
C
102
}
330
C
100
AcDbDictionary
281
     1
  0
ACDBDICTIONARYWDFLT
  5
E
102
{ACAD_REACTORS
330
C
102
}
330
C
100
AcDbDictionary
281
     1
  3
Normal
350
F
100
AcDbDictionaryWithDefault
340
F
  0
DICTIONARY
  5
10C
102
{ACAD_REACTORS
330
C
102
}
330
C
100
AcDbDictionary
281
     1
  3
A0
350
10D
  3
A1
350
1BE
  3
A2
350
1BF
  3
A3
350
1C0
  3
A4
350
1C1
  3
A5
350
1C2
  3
A6
350
1C3
  3
A7
350
1C4
  3
A8
350
1C5
  3
A9
350
1C6
  3
B0
350
1C7
  3
B1
350
1C8
  3
B2
350
1C9
  3
B3
350
1CA
  3
B4
350
1CB
  3
B5
350
1CC
  3
B6
350
1CD
  0
DICTIONARY
  5
219
102
{ACAD_REACTORS
330
C
102
}
330
C
100
AcDbDictionary
281
     1
  3
Metric50
350
21A
  0
DICTIONARY
  5
7E
102
{ACAD_REACTORS
330
C
102
}
330
C
100
AcDbDictionary
281
     1
  3
Standard
350
7F
  0
DICTIONARY
  5
EF
102
{ACAD_REACTORS
330
C
102
}
330
C
100
AcDbDictionary
281
     1
  3
2dWireframe
350
F5
  3
Basic
350
F4
  3
Brighten
350
FB
  3
ColorChange
350
FF
  3
Conceptual
350
F8
  3
Dim
350
FA
  3
EdgeColorOff
350
1E6
  3
Facepattern
350
FE
  3
Flat
350
F0
  3
FlatWithEdges
350
F1
  3
Gouraud
350
F2
  3
GouraudWithEdges
350
F3
  3
Hidden
350
F7
  3
JitterOff
350
1E4
  3
Linepattern
350
FD
  3
OverhangOff
350
1E5
  3
Realistic
350
F9
  3
Shaded
350
1F3
  3
Shaded with edges
350
1F2
  3
Shades of Gray
350
1EF
  3
Sketchy
350
1F0
  3
Thicken
350
FC
  3
Wireframe
350
F6
  3
X-Ray
350
1F1
  0
XRECORD
  5
53A6
102
{ACAD_REACTORS
330
C
102
}
330
C
100
AcDbXrecord
280
     1
 90
        1
330
7F
  0
DICTIONARY
  5
5E
102
{ACAD_REACTORS
330
C
102
}
330
C
100
AcDbDictionary
281
     1
  3
CANNOSCALE
350
146
  3
CENTEREXE
350
259
  3
CENTERLTYPEFILE
350
25A
  3
CMLEADERSTYLE
350
145
  3
CTABLESTYLE
350
84
  3
CVIEWDETAILSTYLE
350
227
  3
CVIEWSECTIONSTYLE
350
228
  3
DIMASSOC
350
5F
  3
HIDETEXT
350
63
  3
INDEXCTL
350
5353
  3
LAYEREVAL
350
1AE
  3
LAYERNOTIFY
350
1AF
  3
LIGHTINGUNITS
350
5351
  3
MSLTSCALE
350
5350
  3
PSOLHEIGHT
350
53A3
  3
PSOLWIDTH
350
53A2
  3
SORTENTS
350
5352
  3
XCLIPFRAME
350
53A4
  0
XRECORD
  5
53A7
102
{ACAD_REACTORS
330
C
102
}
330
C
100
AcDbXrecord
280
     1
  1
DWGPROPS COOKIE
  2

  3

  4

  6

  7

  8
KhuNguyen
  9

300
=
301
=
302
=
303
=
304
=
305
=
306
=
307
=
308
=
309
=
 40
0.0018287037037037
 41
2460476.646099537
 42
2460476.69224537
  1

 90
        0
  0
DICTIONARY
  5
200
102
{ACAD_REACTORS
330
1FF
102
}
330
1FF
100
AcDbDictionary
281
     1
  0
XRECORD
  5
52FE
102
{ACAD_REACTORS
330
1CE
102
}
330
1CE
100
AcDbXrecord
280
     1
340
1F
  0
XRECORD
  5
5307
102
{ACAD_REACTORS
330
52A9
102
}
330
52A9
100
AcDbXrecord
280
     1
340
D2
  0
XRECORD
  5
530A
102
{ACAD_REACTORS
330
52AB
102
}
330
52AB
100
AcDbXrecord
280
     1
340
D6
  0
ACDBDETAILVIEWSTYLE
  5
21C
102
{ACAD_XDICTIONARY
360
53E6
102
}
102
{ACAD_REACTORS
330
21B
102
}
330
21B
100
AcDbModelDocViewStyle
 70
     0
  3
Metric50
290
     0
100
AcDbDetailViewStyle
 70
     0
 71
     0
 90
        3
 71
     1
340
11
 40
5.0
340
0
 40
5.0
300

 40
0.0
280
     1
 71
     2
340
16
 90
       25
 71
     3
340
11
 40
5.0
 90
        0
 40
15.0
 90
        1
300
%<\AcVar ViewDetailId>% (%<\AcVar ViewScale \f "%sn">%)
 71
     4
340
16
 90
       25
340
16
 90
       25
280
     0
  0
LAYOUT
  5
D3
102
{ACAD_XDICTIONARY
360
53AB
102
}
102
{ACAD_REACTORS
330
1A
102
}
330
1A
100
AcDbPlotSettings
  1

  2
C:\Documents and Settings\basas\Application Data\Autodesk\AutoCAD 2005\R16.1\enu\plotters\Default Windows System Printer.pc3
  4

  6

 40
0.0
 41
0.0
 42
0.0
 43
0.0
 44
0.0
 45
0.0
 46
0.0
 47
0.0
 48
0.0
 49
0.0
140
0.0
141
0.0
142
1.0
143
1.0
 70
   688
 72
     0
 73
     0
 74
     5
  7

 75
    16
147
1.0
148
0.0
149
0.0
100
AcDbLayout
  1
Layout1
 70
     1
 71
     1
 10
0.0
 20
0.0
 11
12.0
 21
9.0
 12
0.0
 22
0.0
 32
0.0
 14
0.0
 24
0.0
 34
0.0
 15
0.0
 25
0.0
 35
0.0
146
0.0
 13
0.0
 23
0.0
 33
0.0
 16
1.0
 26
0.0
 36
0.0
 17
0.0
 27
1.0
 37
0.0
 76
     0
330
D2
  0
LAYOUT
  5
D7
102
{ACAD_XDICTIONARY
360
53AD
102
}
102
{ACAD_REACTORS
330
1A
102
}
330
1A
100
AcDbPlotSettings
  1

  2
C:\Documents and Settings\basas\Application Data\Autodesk\AutoCAD 2005\R16.1\enu\plotters\Default Windows System Printer.pc3
  4

  6

 40
0.0
 41
0.0
 42
0.0
 43
0.0
 44
0.0
 45
0.0
 46
0.0
 47
0.0
 48
0.0
 49
0.0
140
0.0
141
0.0
142
1.0
143
1.0
 70
   688
 72
     0
 73
     0
 74
     5
  7

 75
    16
147
1.0
148
0.0
149
0.0
100
AcDbLayout
  1
Layout2
 70
     1
 71
     2
 10
0.0
 20
0.0
 11
12.0
 21
9.0
 12
0.0
 22
0.0
 32
0.0
 14
0.0
 24
0.0
 34
0.0
 15
0.0
 25
0.0
 35
0.0
146
0.0
 13
0.0
 23
0.0
 33
0.0
 16
1.0
 26
0.0
 36
0.0
 17
0.0
 27
1.0
 37
0.0
 76
     0
330
D6
  0
LAYOUT
  5
22
102
{ACAD_XDICTIONARY
360
53A8
102
}
102
{ACAD_REACTORS
330
1A
102
}
330
1A
100
AcDbPlotSettings
  1

  2
none_device
  4
ISO_A4_(210.00_x_297.00_MM)
  6

 40
7.5
 41
20.0
 42
7.5
 43
20.0
 44
210.0
 45
297.0
 46
11.54999923706054
 47
-13.65000009536743
 48
0.0
 49
0.0
140
0.0
141
0.0
142
1.0
143
8.704084754739808
 70
 11952
 72
     1
 73
     0
 74
     0
  7

 75
     0
147
0.1148885871608098
148
0.0
149
0.0
100
AcDbLayout
  1
Model
 70
     1
 71
     0
 10
0.0
 20
0.0
 11
12.0
 21
9.0
 12
0.0
 22
0.0
 32
0.0
 14
0.0
 24
0.0
 34
0.0
 15
0.0
 25
0.0
 35
0.0
146
0.0
 13
0.0
 23
0.0
 33
0.0
 16
1.0
 26
0.0
 36
0.0
 17
0.0
 27
1.0
 37
0.0
 76
     0
330
1F
331
EA
1001
ACAD_PSEXT
1000
None
1000
None
1000
Not applicable
1000
The layout will not be plotted unless a new plotter configuration name is selected.
1070
     0
  0
MATERIAL
  5
ED
102
{ACAD_XDICTIONARY
360
1F9
102
}
102
{ACAD_REACTORS
330
6A
102
}
330
6A
100
AcDbMaterial
  1
ByBlock
  0
MATERIAL
  5
EC
102
{ACAD_XDICTIONARY
360
1F7
102
}
102
{ACAD_REACTORS
330
6A
102
}
330
6A
100
AcDbMaterial
  1
ByLayer
  0
MATERIAL
  5
EE
102
{ACAD_XDICTIONARY
360
173
102
}
102
{ACAD_REACTORS
330
6A
102
}
330
6A
100
AcDbMaterial
  1
Global
 43
0.0007999999797903
 43
0.0
 43
0.0
 43
0.0
 43
0.0
 43
0.0007999999797903
 43
0.0
 43
0.0
 43
0.0
 43
0.0
 43
1.0
 43
0.0
 43
0.0
 43
0.0
 43
0.0
 43
1.0
 49
0.0007999999797903
 49
0.0
 49
0.0
 49
0.0
 49
0.0
 49
0.0007999999797903
 49
0.0
 49
0.0
 49
0.0
 49
0.0
 49
1.0
 49
0.0
 49
0.0
 49
0.0
 49
0.0
 49
1.0
142
0.0007999999797903
142
0.0
142
0.0
142
0.0
142
0.0
142
0.0007999999797903
142
0.0
142
0.0
142
0.0
142
0.0
142
1.0
142
0.0
142
0.0
142
0.0
142
0.0
142
1.0
144
0.0007999999797903
144
0.0
144
0.0
144
0.0
144
0.0
144
0.0007999999797903
144
0.0
144
0.0
144
0.0
144
0.0
144
1.0
144
0.0
144
0.0
144
0.0
144
0.0
144
1.0
1001
ACAD
1070
    -1
1070
     3
1070
     0
1000

1071
        0
1070
     0
  0
MLEADERSTYLE
  5
12E
102
{ACAD_XDICTIONARY
360
53D2
102
}
102
{ACAD_REACTORS
330
12D
102
}
330
12D
100
AcDbMLeaderStyle
170
     2
171
     1
172
     0
 90
        2
 40
0.0
 41
0.0
173
     1
 91
-1056964608
340
14
 92
       -2
290
     1
 42
2.0
291
     1
 43
8.0
  3
Standard
 44
4.0
300

342
11
174
     1
178
     1
175
     1
176
     0
 93
-1056964608
 45
4.0
292
     0
297
     0
 46
4.0
 94
-1056964608
 47
1.0
 49
1.0
140
1.0
293
     1
141
0.0
294
     1
177
     0
142
1.0
295
     0
296
     0
143
3.75
1001
ACAD_MLEADERVER
1070
     2
  0
MLINESTYLE
  5
18
102
{ACAD_REACTORS
330
17
102
}
330
17
100
AcDbMlineStyle
  2
STANDARD
 70
     0
  3

 62
   256
 51
90.0
 52
90.0
 71
     2
 49
0.5
 62
   256
  6
BYLAYER
 49
-0.5
 62
   256
  6
BYLAYER
  0
ACDBPLACEHOLDER
  5
F
102
{ACAD_REACTORS
330
E
102
}
330
E
  0
SCALE
  5
10D
102
{ACAD_REACTORS
330
10C
102
}
330
10C
100
AcDbScale
 70
     0
300
1:1
140
1.0
141
1.0
290
     1
  0
SCALE
  5
1BE
102
{ACAD_REACTORS
330
10C
102
}
330
10C
100
AcDbScale
 70
     0
300
1:2
140
1.0
141
2.0
290
     0
  0
SCALE
  5
1BF
102
{ACAD_REACTORS
330
10C
102
}
330
10C
100
AcDbScale
 70
     0
300
1:4
140
1.0
141
4.0
290
     0
  0
SCALE
  5
1C0
102
{ACAD_REACTORS
330
10C
102
}
330
10C
100
AcDbScale
 70
     0
300
1:5
140
1.0
141
5.0
290
     0
  0
SCALE
  5
1C1
102
{ACAD_REACTORS
330
10C
102
}
330
10C
100
AcDbScale
 70
     0
300
1:8
140
1.0
141
8.0
290
     0
  0
SCALE
  5
1C2
102
{ACAD_REACTORS
330
10C
102
}
330
10C
100
AcDbScale
 70
     0
300
1:10
140
1.0
141
10.0
290
     0
  0
SCALE
  5
1C3
102
{ACAD_REACTORS
330
10C
102
}
330
10C
100
AcDbScale
 70
     0
300
1:16
140
1.0
141
16.0
290
     0
  0
SCALE
  5
1C4
102
{ACAD_REACTORS
330
10C
102
}
330
10C
100
AcDbScale
 70
     0
300
1:20
140
1.0
141
20.0
290
     0
  0
SCALE
  5
1C5
102
{ACAD_REACTORS
330
10C
102
}
330
10C
100
AcDbScale
 70
     0
300
1:30
140
1.0
141
30.0
290
     0
  0
SCALE
  5
1C6
102
{ACAD_REACTORS
330
10C
102
}
330
10C
100
AcDbScale
 70
     0
300
1:40
140
1.0
141
40.0
290
     0
  0
SCALE
  5
1C7
102
{ACAD_REACTORS
330
10C
102
}
330
10C
100
AcDbScale
 70
     0
300
1:50
140
1.0
141
50.0
290
     0
  0
SCALE
  5
1C8
102
{ACAD_REACTORS
330
10C
102
}
330
10C
100
AcDbScale
 70
     0
300
1:100
140
1.0
141
100.0
290
     0
  0
SCALE
  5
1C9
102
{ACAD_REACTORS
330
10C
102
}
330
10C
100
AcDbScale
 70
     0
300
2:1
140
2.0
141
1.0
290
     0
  0
SCALE
  5
1CA
102
{ACAD_REACTORS
330
10C
102
}
330
10C
100
AcDbScale
 70
     0
300
4:1
140
4.0
141
1.0
290
     0
  0
SCALE
  5
1CB
102
{ACAD_REACTORS
330
10C
102
}
330
10C
100
AcDbScale
 70
     0
300
8:1
140
8.0
141
1.0
290
     0
  0
SCALE
  5
1CC
102
{ACAD_REACTORS
330
10C
102
}
330
10C
100
AcDbScale
 70
     0
300
10:1
140
10.0
141
1.0
290
     0
  0
SCALE
  5
1CD
102
{ACAD_REACTORS
330
10C
102
}
330
10C
100
AcDbScale
 70
     0
300
100:1
140
100.0
141
1.0
290
     0
  0
ACDBSECTIONVIEWSTYLE
  5
21A
102
{ACAD_XDICTIONARY
360
53E4
102
}
102
{ACAD_REACTORS
330
219
102
}
330
219
100
AcDbModelDocViewStyle
 70
     0
  3
Metric50
290
     0
100
AcDbSectionViewStyle
 70
     0
 71
     0
 90
      102
 71
     1
340
11
 40
5.0
340
0
340
0
 40
5.0
300
I, O, Q, S, X, Z
 40
10.0
 90
        0
 40
2.5
 90
        0
 71
     2
340
16
 90
       25
340
16
 90
       50
 40
5.0
 40
2.5
 40
5.0
 71
     3
340
11
 40
5.0
 90
        0
 40
15.0
 90
        1
300
%<\AcVar ViewSectionStartId>%-%<\AcVar ViewSectionEndId>% (%<\AcVar ViewScale \f "%sn">%)
 71
     4
300
ANSI31
 40
1.0
 90
        0
290
     0
290
     0
 90
        6
 40
0.0
 40
1.570796326794896
 40
0.2617993877991494
 40
1.308996938995747
 40
-0.2617993877991494
 40
1.832595714594046
  0
TABLESTYLE
  5
7F
102
{ACAD_XDICTIONARY
360
162
102
}
102
{ACAD_REACTORS
330
7E
102
}
330
7E
100
AcDbTableStyle
  3
Standard
 70
     0
 71
     0
 40
1.5
 41
1.5
280
     0
281
     0
  7
Standard
140
4.5
170
     2
 62
     0
 63
     7
283
     0
274
    -2
284
     1
 64
     0
275
    -2
285
     1
 65
     0
276
    -2
286
     1
 66
     0
277
    -2
287
     1
 67
     0
278
    -2
288
     1
 68
     0
279
    -2
289
     1
 69
     0
  7
Standard
140
6.0
170
     5
 62
     0
 63
     7
283
     0
274
    -2
284
     1
 64
     0
275
    -2
285
     1
 65
     0
276
    -2
286
     1
 66
     0
277
    -2
287
     1
 67
     0
278
    -2
288
     1
 68
     0
279
    -2
289
     1
 69
     0
  7
Standard
140
4.5
170
     5
 62
     0
 63
     7
283
     0
274
    -2
284
     1
 64
     0
275
    -2
285
     1
 65
     0
276
    -2
286
     1
 66
     0
277
    -2
287
     1
 67
     0
278
    -2
288
     1
 68
     0
279
    -2
289
     1
 69
     0
  0
VISUALSTYLE
  5
F5
102
{ACAD_XDICTIONARY
360
53BC
102
}
102
{ACAD_REACTORS
330
EF
102
}
330
EF
100
AcDbVisualStyle
  2
2dWireframe
 70
     4
 71
     0
 72
     2
 73
     1
 90
        0
 40
-0.6
 41
-30.0
 62
     5
 63
     7
 74
     1
 91
        4
 64
     7
 65
   257
 75
     1
175
     1
 42
1.0
 92
        0
 66
   257
 43
1.0
 76
     1
 77
     6
 78
     2
 67
     7
 79
     5
170
     0
171
     0
290
     0
174
     0
 93
        1
 44
0.0
173
     0
291
     0
 45
0.0
1001
ACAD
1000
AcDbSavedByObjectVersion
1070
     0
  0
VISUALSTYLE
  5
F4
102
{ACAD_XDICTIONARY
360
53BA
102
}
102
{ACAD_REACTORS
330
EF
102
}
330
EF
100
AcDbVisualStyle
  2
Basic
 70
     7
 71
     1
 72
     0
 73
     1
 90
        0
 40
-0.6
 41
-30.0
 62
     5
 63
     7
 74
     0
 91
        4
 64
     7
 65
   257
 75
     1
175
     1
 42
1.0
 92
        8
 66
     7
 43
1.0
 76
     1
 77
     6
 78
     2
 67
     7
 79
     5
170
     0
171
     0
290
     0
174
     0
 93
        1
 44
0.0
173
     0
291
     1
 45
0.0
1001
ACAD
1000
AcDbSavedByObjectVersion
1070
     0
  0
VISUALSTYLE
  5
FB
102
{ACAD_XDICTIONARY
360
53C8
102
}
102
{ACAD_REACTORS
330
EF
102
}
330
EF
100
AcDbVisualStyle
  2
Brighten
 70
    12
 71
     2
 72
     2
 73
     1
 90
        0
 40
-0.6
 41
-30.0
 62
     5
 63
     7
 74
     1
 91
        4
 64
     7
 65
   257
 75
     1
175
     1
 42
1.0
 92
        8
 66
     7
 43
1.0
 76
     1
 77
     6
 78
     2
 67
     7
 79
     5
170
     0
171
     0
290
     0
174
     0
 93
        1
 44
50.0
173
     0
291
     1
 45
0.0
1001
ACAD
1000
AcDbSavedByObjectVersion
1070
     0
  0
VISUALSTYLE
  5
FF
102
{ACAD_XDICTIONARY
360
53D0
102
}
102
{ACAD_REACTORS
330
EF
102
}
330
EF
100
AcDbVisualStyle
  2
ColorChange
 70
    16
 71
     2
 72
     2
 73
     3
 90
        0
 40
-0.6
 41
-30.0
 62
     5
 63
     8
 74
     1
 91
        4
 64
     7
 65
   257
 75
     1
175
     1
 42
1.0
 92
        8
 66
     8
 43
1.0
 76
     1
 77
     6
 78
     2
 67
     7
 79
     5
170
     0
171
     0
290
     0
174
     0
 93
        1
 44
0.0
173
     0
291
     1
 45
0.0
1001
ACAD
1000
AcDbSavedByObjectVersion
1070
     0
  0
VISUALSTYLE
  5
F8
102
{ACAD_XDICTIONARY
360
53C2
102
}
102
{ACAD_REACTORS
330
EF
102
}
330
EF
100
AcDbVisualStyle
  2
Conceptual
 70
     9
 71
     3
 72
     2
 73
     1
 90
        0
 40
-0.6
 41
-30.0
 62
     5
 63
     7
 74
     2
 91
        2
 64
     7
 65
   257
 75
     1
175
     1
 42
40.0
 92
        8
 66
     7
 43
1.0
 76
     1
 77
     6
 78
     2
 67
     7
 79
     3
170
     0
171
     0
290
     0
174
     0
 93
        1
 44
0.0
173
     0
291
     0
 45
0.0
1001
ACAD
1000
AcDbSavedByObjectVersion
1070
     0
  0
VISUALSTYLE
  5
FA
102
{ACAD_XDICTIONARY
360
53C6
102
}
102
{ACAD_REACTORS
330
EF
102
}
330
EF
100
AcDbVisualStyle
  2
Dim
 70
    11
 71
     2
 72
     2
 73
     1
 90
        0
 40
-0.6
 41
-30.0
 62
     5
 63
     7
 74
     1
 91
        4
 64
     7
 65
   257
 75
     1
175
     1
 42
1.0
 92
        8
 66
     7
 43
1.0
 76
     1
 77
     6
 78
     2
 67
     7
 79
     5
170
     0
171
     0
290
     0
174
     0
 93
        1
 44
-50.0
173
     0
291
     1
 45
0.0
1001
ACAD
1000
AcDbSavedByObjectVersion
1070
     0
  0
VISUALSTYLE
  5
1E6
102
{ACAD_XDICTIONARY
360
53D8
102
}
102
{ACAD_REACTORS
330
EF
102
}
330
EF
100
AcDbVisualStyle
  2
EdgeColorOff
 70
    22
 71
     2
 72
     2
 73
     0
 90
        0
 40
-0.6
 41
-30.0
 62
     5
 63
     7
 74
     1
 91
        4
 64
     7
 65
   257
 75
     1
175
     1
 42
1.0
 92
        8
 66
     7
 43
1.0
 76
     1
 77
     6
 78
     2
 67
     7
 79
     5
170
     0
171
     0
290
     0
174
     0
 93
        1
 44
0.0
173
     0
291
     1
 45
0.0
1001
ACAD
1000
AcDbSavedByObjectVersion
1070
     0
  0
VISUALSTYLE
  5
FE
102
{ACAD_XDICTIONARY
360
53CE
102
}
102
{ACAD_REACTORS
330
EF
102
}
330
EF
100
AcDbVisualStyle
  2
Facepattern
 70
    15
 71
     2
 72
     2
 73
     1
 90
        0
 40
-0.6
 41
-30.0
 62
     5
 63
     7
 74
     1
 91
        4
 64
     7
 65
   257
 75
     1
175
     1
 42
1.0
 92
        8
 66
     7
 43
1.0
 76
     1
 77
     6
 78
     2
 67
     7
 79
     5
170
     0
171
     0
290
     0
174
     0
 93
        1
 44
0.0
173
     0
291
     1
 45
0.0
1001
ACAD
1000
AcDbSavedByObjectVersion
1070
     0
  0
VISUALSTYLE
  5
F0
102
{ACAD_XDICTIONARY
360
53B2
102
}
102
{ACAD_REACTORS
330
EF
102
}
330
EF
100
AcDbVisualStyle
  2
Flat
 70
     0
 71
     2
 72
     1
 73
     1
 90
        2
 40
-0.6
 41
30.0
 62
     5
 63
     7
 74
     0
 91
        0
 64
     7
 65
   257
 75
     1
175
     1
 42
1.0
 92
        8
 66
     7
 43
1.0
 76
     1
 77
     6
 78
     2
 67
     7
 79
     5
170
     0
171
     0
290
     0
174
     0
 93
       13
 44
0.0
173
     0
291
     1
 45
0.0
1001
ACAD
1000
AcDbSavedByObjectVersion
1070
     0
  0
VISUALSTYLE
  5
F1
102
{ACAD_XDICTIONARY
360
53B4
102
}
102
{ACAD_REACTORS
330
EF
102
}
330
EF
100
AcDbVisualStyle
  2
FlatWithEdges
 70
     1
 71
     2
 72
     1
 73
     1
 90
        2
 40
-0.6
 41
30.0
 62
     5
 63
     7
 74
     1
 91
        0
 64
     7
 65
   257
 75
     1
175
     1
 42
1.0
 92
        0
 66
   257
 43
1.0
 76
     1
 77
     6
 78
     2
 67
     7
 79
     5
170
     0
171
     0
290
     0
174
     0
 93
       13
 44
0.0
173
     0
291
     1
 45
0.0
1001
ACAD
1000
AcDbSavedByObjectVersion
1070
     0
  0
VISUALSTYLE
  5
F2
102
{ACAD_XDICTIONARY
360
53B6
102
}
102
{ACAD_REACTORS
330
EF
102
}
330
EF
100
AcDbVisualStyle
  2
Gouraud
 70
     2
 71
     2
 72
     2
 73
     1
 90
        2
 40
-0.6
 41
30.0
 62
     5
 63
     7
 74
     0
 91
        0
 64
     7
 65
   257
 75
     1
175
     1
 42
1.0
 92
        0
 66
     7
 43
1.0
 76
     1
 77
     6
 78
     2
 67
     7
 79
     5
170
     0
171
     0
290
     0
174
     0
 93
       13
 44
0.0
173
     0
291
     1
 45
0.0
1001
ACAD
1000
AcDbSavedByObjectVersion
1070
     0
  0
VISUALSTYLE
  5
F3
102
{ACAD_XDICTIONARY
360
53B8
102
}
102
{ACAD_REACTORS
330
EF
102
}
330
EF
100
AcDbVisualStyle
  2
GouraudWithEdges
 70
     3
 71
     2
 72
     2
 73
     1
 90
        2
 40
-0.6
 41
30.0
 62
     5
 63
     7
 74
     1
 91
        0
 64
     7
 65
   257
 75
     1
175
     1
 42
1.0
 92
        0
 66
   257
 43
1.0
 76
     1
 77
     6
 78
     2
 67
     7
 79
     5
170
     0
171
     0
290
     0
174
     0
 93
       13
 44
0.0
173
     0
291
     1
 45
0.0
1001
ACAD
1000
AcDbSavedByObjectVersion
1070
     0
  0
VISUALSTYLE
  5
F7
102
{ACAD_XDICTIONARY
360
53C0
102
}
102
{ACAD_REACTORS
330
EF
102
}
330
EF
100
AcDbVisualStyle
  2
Hidden
 70
     6
 71
     1
 72
     2
 73
     2
 90
        0
 40
-0.6
 41
-30.0
 62
     5
 63
     7
 74
     2
 91
        2
 64
     7
 65
   257
 75
     2
175
     1
 42
40.0
 92
        0
 66
   257
 43
1.0
 76
     1
 77
     6
 78
     2
 67
     7
 79
     3
170
     0
171
     0
290
     0
174
     0
 93
        1
 44
0.0
173
     0
291
     0
 45
0.0
1001
ACAD
1000
AcDbSavedByObjectVersion
1070
     0
  0
VISUALSTYLE
  5
1E4
102
{ACAD_XDICTIONARY
360
53D4
102
}
102
{ACAD_REACTORS
330
EF
102
}
330
EF
100
AcDbVisualStyle
  2
JitterOff
 70
    20
 71
     2
 72
     2
 73
     0
 90
        0
 40
-0.6
 41
-30.0
 62
     5
 63
     7
 74
     1
 91
        4
 64
     7
 65
   257
 75
     1
175
     1
 42
1.0
 92
       10
 66
     7
 43
1.0
 76
     1
 77
     6
 78
     2
 67
     7
 79
     5
170
     0
171
     0
290
     0
174
     0
 93
        1
 44
0.0
173
     0
291
     1
 45
0.0
1001
ACAD
1000
AcDbSavedByObjectVersion
1070
     0
  0
VISUALSTYLE
  5
FD
102
{ACAD_XDICTIONARY
360
53CC
102
}
102
{ACAD_REACTORS
330
EF
102
}
330
EF
100
AcDbVisualStyle
  2
Linepattern
 70
    14
 71
     2
 72
     2
 73
     1
 90
        0
 40
-0.6
 41
-30.0
 62
     5
 63
     7
 74
     1
 91
        4
 64
     7
 65
   257
 75
     7
175
     7
 42
1.0
 92
        8
 66
     7
 43
1.0
 76
     1
 77
     6
 78
     2
 67
     7
 79
     5
170
     0
171
     0
290
     0
174
     0
 93
        1
 44
0.0
173
     0
291
     1
 45
0.0
1001
ACAD
1000
AcDbSavedByObjectVersion
1070
     0
  0
VISUALSTYLE
  5
1E5
102
{ACAD_XDICTIONARY
360
53D6
102
}
102
{ACAD_REACTORS
330
EF
102
}
330
EF
100
AcDbVisualStyle
  2
OverhangOff
 70
    21
 71
     2
 72
     2
 73
     0
 90
        0
 40
-0.6
 41
-30.0
 62
     5
 63
     7
 74
     1
 91
        4
 64
     7
 65
   257
 75
     1
175
     1
 42
1.0
 92
        9
 66
     7
 43
1.0
 76
     1
 77
     6
 78
     2
 67
     7
 79
     5
170
     0
171
     0
290
     0
174
     0
 93
        1
 44
0.0
173
     0
291
     1
 45
0.0
1001
ACAD
1000
AcDbSavedByObjectVersion
1070
     0
  0
VISUALSTYLE
  5
F9
102
{ACAD_XDICTIONARY
360
53C4
102
}
102
{ACAD_REACTORS
330
EF
102
}
330
EF
100
AcDbVisualStyle
  2
Realistic
 70
     8
 71
     2
 72
     2
 73
     0
 90
        2
 40
-0.6
 41
30.0
 62
     5
 63
     7
 74
     0
 91
        0
 64
     7
 65
   257
 75
     1
175
     1
 42
1.0
 92
        8
 66
   257
 43
1.0
 76
     1
 77
     6
 78
     2
 67
     7
 79
     3
170
     0
171
     0
290
     0
174
     0
 93
       13
 44
0.0
173
     0
291
     0
 45
0.0
1001
ACAD
1000
AcDbSavedByObjectVersion
1070
     0
  0
VISUALSTYLE
  5
1F3
102
{ACAD_XDICTIONARY
360
53E2
102
}
102
{ACAD_REACTORS
330
EF
102
}
330
EF
100
AcDbVisualStyle
  2
Shaded
 70
    27
 71
     2
 72
     2
 73
     1
 90
        2
 40
-0.6
 41
30.0
 62
     5
 63
     7
 74
     0
 91
        4
 64
     7
 65
   257
 75
     1
175
     1
 42
1.0
 92
        8
 66
   257
 43
1.0
 76
     1
 77
     6
 78
     2
 67
     8
 79
     3
170
     0
171
     0
290
     0
174
     0
 93
        5
 44
0.0
173
     0
291
     0
 45
0.0
1001
ACAD
1000
AcDbSavedByObjectVersion
1070
     0
  0
VISUALSTYLE
  5
1F2
102
{ACAD_XDICTIONARY
360
53E0
102
}
102
{ACAD_REACTORS
330
EF
102
}
330
EF
100
AcDbVisualStyle
  2
Shaded with edges
 70
    26
 71
     2
 72
     2
 73
     1
 90
        2
 40
-0.6
 41
30.0
 62
     5
 63
     7
 74
     1
 91
        2
 64
     7
 65
   257
 75
     2
175
     1
 42
1.0
 92
        8
 66
   257
 43
1.0
 76
     1
 77
     6
 78
     2
 67
     7
 79
     3
170
     0
171
     0
290
     0
174
     0
 93
        5
 44
0.0
173
     0
291
     0
 45
0.0
1001
ACAD
1000
AcDbSavedByObjectVersion
1070
     0
  0
VISUALSTYLE
  5
1EF
102
{ACAD_XDICTIONARY
360
53DA
102
}
102
{ACAD_REACTORS
330
EF
102
}
330
EF
100
AcDbVisualStyle
  2
Shades of Gray
 70
    23
 71
     2
 72
     2
 73
     3
 90
        0
 40
-0.6
 41
-30.0
 62
     5
 63
     7
 74
     2
 91
        2
 64
     7
 65
     7
 75
     1
175
     1
 42
40.0
 92
        8
 66
     7
 43
1.0
 76
     1
 77
     6
 78
     2
 67
     7
 79
     3
170
     0
171
     0
290
     0
174
     0
 93
        1
 44
0.0
173
     0
291
     0
 45
0.0
1001
ACAD
1000
AcDbSavedByObjectVersion
1070
     0
  0
VISUALSTYLE
  5
1F0
102
{ACAD_XDICTIONARY
360
53DC
102
}
102
{ACAD_REACTORS
330
EF
102
}
330
EF
100
AcDbVisualStyle
  2
Sketchy
 70
    24
 71
     1
 72
     2
 73
     2
 90
        0
 40
-0.6
 41
-30.0
 62
     5
 63
     7
 74
     2
 91
        2
 64
     7
 65
     7
 75
     1
175
     1
 42
40.0
 92
       11
 66
     7
 43
1.0
 76
     1
 77
     6
 78
     2
 67
     7
 79
     6
170
     0
171
     0
290
     0
174
     0
 93
        1
 44
0.0
173
     0
291
     0
 45
0.0
1001
ACAD
1000
AcDbSavedByObjectVersion
1070
     0
  0
VISUALSTYLE
  5
FC
102
{ACAD_XDICTIONARY
360
53CA
102
}
102
{ACAD_REACTORS
330
EF
102
}
330
EF
100
AcDbVisualStyle
  2
Thicken
 70
    13
 71
     2
 72
     2
 73
     1
 90
        0
 40
-0.6
 41
-30.0
 62
     5
 63
     7
 74
     1
 91
        4
 64
     7
 65
   257
 75
     1
175
     1
 42
1.0
 92
       12
 66
     7
 43
1.0
 76
     1
 77
     6
 78
     2
 67
     7
 79
     5
170
     0
171
     0
290
     0
174
     0
 93
        1
 44
0.0
173
     0
291
     1
 45
0.0
1001
ACAD
1000
AcDbSavedByObjectVersion
1070
     0
  0
VISUALSTYLE
  5
F6
102
{ACAD_XDICTIONARY
360
53BE
102
}
102
{ACAD_REACTORS
330
EF
102
}
330
EF
100
AcDbVisualStyle
  2
Wireframe
 70
     5
 71
     0
 72
     2
 73
     0
 90
        0
 40
-0.6
 41
-30.0
 62
     5
 63
     7
 74
     1
 91
        4
 64
     7
 65
   257
 75
     1
175
     1
 42
1.0
 92
        0
 66
   257
 43
1.0
 76
     1
 77
     6
 78
     2
 67
     7
 79
     3
170
     0
171
     0
290
     0
174
     0
 93
        1
 44
0.0
173
     0
291
     0
 45
0.0
1001
ACAD
1000
AcDbSavedByObjectVersion
1070
     0
  0
VISUALSTYLE
  5
1F1
102
{ACAD_XDICTIONARY
360
53DE
102
}
102
{ACAD_REACTORS
330
EF
102
}
330
EF
100
AcDbVisualStyle
  2
X-Ray
 70
    25
 71
     2
 72
     2
 73
     1
 90
        1
 40
0.5
 41
-30.0
 62
     5
 63
     7
 74
     1
 91
        0
 64
     7
 65
   257
 75
     1
175
     1
 42
1.0
 92
        8
 66
     7
 43
1.0
 76
     1
 77
     6
 78
     2
 67
     7
 79
     3
170
     0
171
     0
290
     0
174
     0
 93
       13
 44
0.0
173
     0
291
     0
 45
0.0
1001
ACAD
1000
AcDbSavedByObjectVersion
1070
     0
  0
DICTIONARYVAR
  5
146
102
{ACAD_REACTORS
330
5E
102
}
330
5E
100
DictionaryVariables
280
     0
  1
1:1
  0
DICTIONARYVAR
  5
259
102
{ACAD_REACTORS
330
5E
102
}
330
5E
100
DictionaryVariables
280
     0
  1
3.500000
  0
DICTIONARYVAR
  5
25A
102
{ACAD_REACTORS
330
5E
102
}
330
5E
100
DictionaryVariables
280
     0
  1
acadiso.lin
  0
DICTIONARYVAR
  5
145
102
{ACAD_REACTORS
330
5E
102
}
330
5E
100
DictionaryVariables
280
     0
  1
STANDARD
  0
DICTIONARYVAR
  5
84
102
{ACAD_REACTORS
330
5E
102
}
330
5E
100
DictionaryVariables
280
     0
  1
STANDARD
  0
DICTIONARYVAR
  5
227
102
{ACAD_REACTORS
330
5E
102
}
330
5E
100
DictionaryVariables
280
     0
  1
Metric50
  0
DICTIONARYVAR
  5
228
102
{ACAD_REACTORS
330
5E
102
}
330
5E
100
DictionaryVariables
280
     0
  1
Metric50
  0
DICTIONARYVAR
  5
5F
102
{ACAD_REACTORS
330
5E
102
}
330
5E
100
DictionaryVariables
280
     0
  1
2
  0
DICTIONARYVAR
  5
63
102
{ACAD_REACTORS
330
5E
102
}
330
5E
100
DictionaryVariables
280
     0
  1
1
  0
DICTIONARYVAR
  5
5353
102
{ACAD_REACTORS
330
5E
102
}
330
5E
100
DictionaryVariables
280
     0
  1
0
  0
DICTIONARYVAR
  5
1AE
102
{ACAD_REACTORS
330
5E
102
}
330
5E
100
DictionaryVariables
280
     0
  1
0
  0
DICTIONARYVAR
  5
1AF
102
{ACAD_REACTORS
330
5E
102
}
330
5E
100
DictionaryVariables
280
     0
  1
0
  0
DICTIONARYVAR
  5
5351
102
{ACAD_REACTORS
330
5E
102
}
330
5E
100
DictionaryVariables
280
     0
  1
2
  0
DICTIONARYVAR
  5
5350
102
{ACAD_REACTORS
330
5E
102
}
330
5E
100
DictionaryVariables
280
     0
  1
1
  0
DICTIONARYVAR
  5
53A3
102
{ACAD_REACTORS
330
5E
102
}
330
5E
100
DictionaryVariables
280
     0
  1
80.000000
  0
DICTIONARYVAR
  5
53A2
102
{ACAD_REACTORS
330
5E
102
}
330
5E
100
DictionaryVariables
280
     0
  1
5.000000
  0
DICTIONARYVAR
  5
5352
102
{ACAD_REACTORS
330
5E
102
}
330
5E
100
DictionaryVariables
280
     0
  1
127
  0
DICTIONARYVAR
  5
53A4
102
{ACAD_REACTORS
330
5E
102
}
330
5E
100
DictionaryVariables
280
     0
  1
2
  0
DICTIONARY
  5
53E6
330
21C
100
AcDbDictionary
280
     1
281
     1
  3
ACAD_XREC_ROUNDTRIP
360
53E7
  0
DICTIONARY
  5
53AB
330
D3
100
AcDbDictionary
280
     1
281
     1
  3
ACAD_XREC_ROUNDTRIP
360
53AC
  0
DICTIONARY
  5
53AD
330
D7
100
AcDbDictionary
280
     1
281
     1
  3
ACAD_XREC_ROUNDTRIP
360
53AE
  0
DICTIONARY
  5
53A8
330
22
100
AcDbDictionary
280
     1
281
     1
  3
ACAD_XREC_ROUNDTRIP
360
53A9
  0
DICTIONARY
  5
1F9
330
ED
100
AcDbDictionary
280
     1
281
     1
  3
ACAD_XREC_ROUNDTRIP
360
53B0
  3
FBXASSET
360
1FA
  0
DICTIONARY
  5
1F7
330
EC
100
AcDbDictionary
280
     1
281
     1
  3
ACAD_XREC_ROUNDTRIP
360
53AF
  3
FBXASSET
360
1F8
  0
DICTIONARY
  5
173
330
EE
100
AcDbDictionary
280
     1
281
     1
  3
ACAD_XREC_ROUNDTRIP
360
53B1
  3
BUMPTILE
360
175
  3
DIFFUSETILE
360
174
  3
FBXASSET
360
1FB
  3
OPACITYTILE
360
176
  3
REFLECTIONTILE
360
177
  0
DICTIONARY
  5
53D2
330
12E
100
AcDbDictionary
280
     1
281
     1
  3
ACAD_XREC_ROUNDTRIP
360
53D3
  0
DICTIONARY
  5
53E4
330
21A
100
AcDbDictionary
280
     1
281
     1
  3
ACAD_XREC_ROUNDTRIP
360
53E5
  0
DICTIONARY
  5
162
330
7F
100
AcDbDictionary
280
     1
281
     1
  3
ACAD_ROUNDTRIP_2008_TABLESTYLE_CELLSTYLEMAP
360
53A5
  3
ACAD_XREC_ROUNDTRIP
360
53AA
  0
DICTIONARY
  5
53BC
330
F5
100
AcDbDictionary
280
     1
281
     1
  3
ACAD_XREC_ROUNDTRIP
360
53BD
  0
DICTIONARY
  5
53BA
330
F4
100
AcDbDictionary
280
     1
281
     1
  3
ACAD_XREC_ROUNDTRIP
360
53BB
  0
DICTIONARY
  5
53C8
330
FB
100
AcDbDictionary
280
     1
281
     1
  3
ACAD_XREC_ROUNDTRIP
360
53C9
  0
DICTIONARY
  5
53D0
330
FF
100
AcDbDictionary
280
     1
281
     1
  3
ACAD_XREC_ROUNDTRIP
360
53D1
  0
DICTIONARY
  5
53C2
330
F8
100
AcDbDictionary
280
     1
281
     1
  3
ACAD_XREC_ROUNDTRIP
360
53C3
  0
DICTIONARY
  5
53C6
330
FA
100
AcDbDictionary
280
     1
281
     1
  3
ACAD_XREC_ROUNDTRIP
360
53C7
  0
DICTIONARY
  5
53D8
330
1E6
100
AcDbDictionary
280
     1
281
     1
  3
ACAD_XREC_ROUNDTRIP
360
53D9
  0
DICTIONARY
  5
53CE
330
FE
100
AcDbDictionary
280
     1
281
     1
  3
ACAD_XREC_ROUNDTRIP
360
53CF
  0
DICTIONARY
  5
53B2
330
F0
100
AcDbDictionary
280
     1
281
     1
  3
ACAD_XREC_ROUNDTRIP
360
53B3
  0
DICTIONARY
  5
53B4
330
F1
100
AcDbDictionary
280
     1
281
     1
  3
ACAD_XREC_ROUNDTRIP
360
53B5
  0
DICTIONARY
  5
53B6
330
F2
100
AcDbDictionary
280
     1
281
     1
  3
ACAD_XREC_ROUNDTRIP
360
53B7
  0
DICTIONARY
  5
53B8
330
F3
100
AcDbDictionary
280
     1
281
     1
  3
ACAD_XREC_ROUNDTRIP
360
53B9
  0
DICTIONARY
  5
53C0
330
F7
100
AcDbDictionary
280
     1
281
     1
  3
ACAD_XREC_ROUNDTRIP
360
53C1
  0
DICTIONARY
  5
53D4
330
1E4
100
AcDbDictionary
280
     1
281
     1
  3
ACAD_XREC_ROUNDTRIP
360
53D5
  0
DICTIONARY
  5
53CC
330
FD
100
AcDbDictionary
280
     1
281
     1
  3
ACAD_XREC_ROUNDTRIP
360
53CD
  0
DICTIONARY
  5
53D6
330
1E5
100
AcDbDictionary
280
     1
281
     1
  3
ACAD_XREC_ROUNDTRIP
360
53D7
  0
DICTIONARY
  5
53C4
330
F9
100
AcDbDictionary
280
     1
281
     1
  3
ACAD_XREC_ROUNDTRIP
360
53C5
  0
DICTIONARY
  5
53E2
330
1F3
100
AcDbDictionary
280
     1
281
     1
  3
ACAD_XREC_ROUNDTRIP
360
53E3
  0
DICTIONARY
  5
53E0
330
1F2
100
AcDbDictionary
280
     1
281
     1
  3
ACAD_XREC_ROUNDTRIP
360
53E1
  0
DICTIONARY
  5
53DA
330
1EF
100
AcDbDictionary
280
     1
281
     1
  3
ACAD_XREC_ROUNDTRIP
360
53DB
  0
DICTIONARY
  5
53DC
330
1F0
100
AcDbDictionary
280
     1
281
     1
  3
ACAD_XREC_ROUNDTRIP
360
53DD
  0
DICTIONARY
  5
53CA
330
FC
100
AcDbDictionary
280
     1
281
     1
  3
ACAD_XREC_ROUNDTRIP
360
53CB
  0
DICTIONARY
  5
53BE
330
F6
100
AcDbDictionary
280
     1
281
     1
  3
ACAD_XREC_ROUNDTRIP
360
53BF
  0
DICTIONARY
  5
53DE
330
1F1
100
AcDbDictionary
280
     1
281
     1
  3
ACAD_XREC_ROUNDTRIP
360
53DF
  0
XRECORD
  5
53E7
102
{ACAD_REACTORS
330
53E6
102
}
330
53E6
100
AcDbXrecord
280
     1
102
DISPLAYNAME
  1
Metric50
102
FLAGS
 90
        0
  0
XRECORD
  5
53AC
102
{ACAD_REACTORS
330
53AB
102
}
330
53AB
100
AcDbXrecord
280
     1
102
SHADEPLOT
 70
     0
102
SHADEPLOTRESLEVEL
 70
     2
102
SHADEPLOTCUSTOMDPI
 70
   300
  0
XRECORD
  5
53AE
102
{ACAD_REACTORS
330
53AD
102
}
330
53AD
100
AcDbXrecord
280
     1
102
SHADEPLOT
 70
     0
102
SHADEPLOTRESLEVEL
 70
     2
102
SHADEPLOTCUSTOMDPI
 70
   300
  0
XRECORD
  5
53A9
102
{ACAD_REACTORS
330
53A8
102
}
330
53A8
100
AcDbXrecord
280
     1
102
SHADEPLOT
 70
     0
102
SHADEPLOTRESLEVEL
 70
     2
102
SHADEPLOTCUSTOMDPI
 70
   300
  0
XRECORD
  5
53B0
102
{ACAD_REACTORS
330
1F9
102
}
330
1F9
100
AcDbXrecord
280
     1
102
MATERIAL
148
0.0
149
0.0
149
0.0
 93
        0
 94
       63
282
     0
 72
     1
 77
     1
171
     1
175
     1
179
     1
273
     0
  0
XRECORD
  5
1FA
102
{ACAD_REACTORS
330
1F9
102
}
330
1F9
100
AcDbXrecord
280
     1
 70
     1
 90
429727718
  1
D62C5603-E3A1-4AEA-B7FB-FE5D8D0755AF
310
504B03040A0000080000CC70623B3DEE336E79000000790000001B0000006175746F6465736B2D64657369676E2D7061636B6167652E786D6C3C3F786D6C2076657273696F6E3D22312E302220656E636F64696E673D227574662D3822203F3E3C666F726D6174733E3C666F726D61743E687474703A2F2F736368656D612E
310
6175746F6465736B2E636F6D2F64657369676E2D7061636B6167652F323030393C2F666F726D61743E3C2F666F726D6174733E504B0304140006080800CC70623BD486FD9CA0000000F4000000130000005B436F6E74656E745F54797065735D2E786D6C7D8EC10E82300C865F65E91D8A1E8C310C0EEA1BF002731658846E
310
D98AC1B77784ABF1D8FE5FBFBF75BBCE937A534CCEB38643598122B6FEE978D0B0485F9C41B54DDD7D022595594E1A469170414C76A4D9A4D207E29CF43ECE46F218070CC6BECC4078ACAA135ACF422C856C0E68EA1BF5669944DDD7BCDE7B1F8E415D77AECB980613C2E4AC91FC167A2B244592486606FC29C8FD7F045B9A
310
EF7053A7E60B504B0304140006080800CC70623B853B8169EB0000007C01000008000000636F72652E786D6C8D90416EC3201045AF62CDB6C206821CC7C244919D9CA01740401C94182C03558F5F9C3852BBEB6A467FFE9B197D7EFC9E1EC5975982F5AE035262288C535E5B377690E21535501C055FBC8FBF6C503839990E
310
5619041F179FE64D52DE45E362569DD7661365082642A11EB9E920A89B99642953CC8E702F67A9EE7234257977194EC9EAE275C4EABCCF5EAD5940D4AC6F0E35A568B8F43562CD7046CD199FD07E60174276A7BE677B5EADB0E0D14EEFFB6A31321A0D82627C4084204C3F096B71DD52F6819B16635EADF63F509AF53FA164
310
5DDCD1EDDD17164090FCC8732078B56691CB33A85CD7DCC40F504B0304140006080800CC70623B55019EA25F0000007C00000007000000636E782E786D6C4DCB3B0E80201045D1AD90E915ED2CF8AC45050C11660C8261F98AB1B07AC9C97D42D718D865D3E909258CFD00CCE24AC6E326A164D74DC0B4128928FF32603847
310
2BA13128B1252AC747C6BAB984FC68F0B87FE8960A5C09FE86CFB69FBA01504B0304140006080800CC70623BDBABAAF470010000D40300000C0000006662782F636F72652E786D6CC553D16E823014FD95A6AF4B694182CC941A83FA05FB810A9511A125A5257EFE2E82712ECEB8A7F100CD39F7F69E734AF9FADC366850B6
310
AF8DCE7018308C942E4C59EB2AC3DE1D498AD15A706B8CFB56869196ADCAF00863C12B6B7C374385D14E6907A836A59A41D9F7CA615434B0C8705F7CAA5606D23BA8E84F41278B93AC54100640439DE0BDB320004D43C63716C7C399D30917DCFBBA9CD9BA8469F5B156168B24CED3F7248AC8769F27244EB73B92EED8862C
310
B7F13E0C179B3C8F979C8ECD82BBBABDAA2BAC924E9558448CBD9330242CFA08E3154B5651FCC6D215639C8EE5774DBE2B5F6CF2B5768B68963BB5F5588420E442FC700B1139D4CB01F450C1E918227C2E09DF070D8140C84E1E9AAB8F1340832A9CB13130A5F1376A908D57309505ECF2A0DF179C4E9D30F5B239B87E3823
310
7A79C6F31DE1A8A5AEC08474B03C7837EAE4938639B44E5932B833D2C6B6B279CDC613877FA26EE21F4A2A4C63EC7F29A2F301D1F9F7A0E37D145F504B0304140006080800CC70623B9C113CC27E0000009D0000000B0000006662782F636E782E786D6C4DCCDF0A83201C86E15B91DFB94BFB330DD428C8FB886521330DA7
310
6397BF1A1DECE883878F57749FCDA1B7892F1BBC047A23808C7F84D9FA55424E0BE6803A256208E9EF06C84F9B91703228B1C690F78B66B34CD9A5439DF5CF0BFBF65E35BCA1B8D6A5C6F540381E886698B5741C695F9503EBA150A2F8958E3DC3EA0B504B0304140006080800CC70623B7DF2F77C2A010000120200003100
310
00006662782F41393633353835312D344632462D344230382D423046372D3739314545314133324237412F636F72652E786D6C8D51DB8EC22014FC15C2939B0D2DB4B45643319AE817EC0F6041255A68B86CFCFC856D4D76DF7CE190393373060EDB3DC707F856CE6B6B7A480A0C81328395DA5C7B18C3057510EC3873D686
310
3F34088C18550F330C39BB3A1BA7051AAC09CA84841A2BD5020AEF55806078A44B0FFD7053A328440C89E1EFC52486BBB8AA8214A99D789CF9E05200300FC927E4FB4D5B375D43103D5527440FB843077C5AA3F5861C8F645F5787F59E95B390B318B55CE45AA638FAA2957BD7248B390B7A7CC51F9C124149C82B8C378810
310
84AB2F42B7B8DD56F413775B8C5999E9FF4471926F8AA236A1AE96B8B3CC434E5839373893369E1FAF30EA395917409EB7F26AF8801C171837A4A6AC9C89E9F9C9B1A58BA30FD6A5EF5DDDCF894B9AD9B6A59C957943A9FCAE2FD5BC4DFE03504B0304140006080800CC70623BAD7543B64E01000033030000300000006662
310
782F41393633353835312D344632462D344230382D423046372D3739314545314133324237412F636E782E786D6CD593CD6EC32010845F0571AD6CE3D48AD20813A9873E410FBD12D82434182C7EAAE6EDBB2424CD25871E7B41D6EC30B3FA84F9E67BB2E40B4234DE8DB46F1925E094D7C6ED479AD3AE5951B2113C789FEE
310
6C943839C1488B4C05DF079FE72A69D8C96C13AAD6B8631503449F83828872B949AC57D26200B826A308D316B4064D6E46FCDA41C05550DC9E483A00797BFD207EFB092A45DE9514C1BBD22178396BD39D891265658C238DEA00936C654E5E433CB65A26D9F6EDB5EBC14EBF49A45CB856E66048291F6939A9A81BB5C89177
310
38143CA680F4AA299D66A042CEB3354A2684DC9D8D178FE0D9B8B41CAAD720F880EE7EF93C0C18769E099ECC04D5A102C8049A8A05632F4DDF376CF1DE0F6BB65C2F8627B65A33C6BB62177CEBBDAD973006829F89F22E814B54F4BC2BE347F8AA8F681390B50FA73F804400B5F542E796F19FF974E7F78DB802FE05E20750
310
4B0304140006080800CC70623BE75B7789680500003C100000340000006662782F41393633353835312D344632462D344230382D423046372D3739314545314133324237412F6F626A656374732E786D6CAD575B8F9B3818FD2B887D06C22499CB8AA1CA655245D5B455A356FB305264C061D8018C6C3393D95FBFC7600890
310
A4CD5EF210B0B1BFEBF98E3F7B1FF6596ABC522E1296DF9BAE3D320D9A872C4AF2F8DE2CE5CEBA358D0FBEC719939D65A691938CDE9B6ADAF4BD98B3B2D05311DD91329583D9D5FC0F438434A7A611A644887B5384CF34233629258BA878B12322891DEFF6B66BD70BFB62634E8AE781D082709A4B588AF91C528CDA28B73F
310
1C998EEF39EABBEFA97FBD6A7C7E9553F9D3D79FE442923C3C523610337627CB87ABE99D359D4CC6D6E4FACAB5E6ABF9D2726FC6A3C5F56271377BB88362213924694B38DD99FE47C48627A1E7D49F5A8BB5E1A74C0A599ED3B0F21F1E56366B89112D681E218F0915D0D6F17AD41FBA2A369DCF6335D62ABBD39779D5DDD1
310
11D4D8DE3CBB96B2E04FB8202E41051754A1AA8E8F76B4C6DFE810B580B1547F4B84911149794252234D024EF8BBE963A95AE27B3D310A9D5C215C7960FAEE415ED75694C6AFB17BCACA5D99A60A9AA65F217B0BFC53292ACB92BF283FAD0D3621576592CB5BED907C2FA8E9DF794E35E97BEA31BED21FEB401ABB94C44839
310
DCACBF0E1C5DA8DA5B2F4DFFD32AD86F543D9E565E7056502E157C00AD2671CD534549AB752FCA9CDA00677A313F04E51B22FF19E57B300579E3C97EB29F682D92935CEC18CF901B7B54FD8C51F362B56FC72FE0B3C1EAE335EDCCBF5AEC39ADB17DC238973F804BA5E6F6BFE7AF1FB32E523BE9F3BD571418E3631DCA4D48
310
5250CF639223210A9446CA30052EDF057BD35F8329C1ECD84552BF0DC8D18BE7BCE23BFE6BD960AB4A7DE79923A103BEBD80F911CBAA2C60DB19B01CF164A5583B772EE6D3FFA56666CBCDA74DC97724A48F9A58967497E489C4D979006FD7A05E227A1EBDD0F737C623387A9C844D3709995625106D157315F8B8392CD4E0
310
A0B9A720C4BE9829CEF37EA1E13111214D53925356365ADA634861B52519DD27A00AEB808EAF0628E6F435519D446F45CF2C9CF5214F0A15B2F6D06B79DA3EE3CBF7F56780D2F4E7EF73A0F5E5B02A38D07DC852C6B7C1FBB6664213E0C39E3EBA7FF4E1AD23EA2829407C85E586727488B751B2DB9502BC7B228A3FD68B6E
310
A65A22397E690AA8D158D7E404EC8CDA235CC3B7D1898680131CEC2CDF2638C65196279577750F15884AEE19F94199155B92B13297978469D4F8D358DF0AEF7631E28DC8F0D9F437D5D39A83B2231A1D52D543813A824EF8D44BCFF2FA6A31BD1E8DAD87F1CCB526B3879935BF59CDADD5C37479BB1CDD4CA7B3556B516589
310
EF352754B706114D9C885EC9131DE6EFEB43D99AFE2391C2F958179413D7CFEF6B1B6DB1E7600F00DE6E5C67454A339A4BA2E0FBA85ED26F045D454F463DBFCE484C2F90F2E5E3666003662ED8F755951A7D1BECD5B30B550B2785C8E7320B7292A4838DDA71BBC863ED7613CAF659337A3354231D4FF4A182A54904C2898C
310
98B28C4AD0CE056CCF332A80986E571EE9DBC305BB5FEB7E509220A58D25CF042D712A806AC0AD0C657FDEF80D2D9CEAA2EE4D1C76F60BFE74219A06527D6F82DF6412526107381E55E353090704D085B52408A8913C4ED159D79BDA71BB4BC506F4831350EB6F975CD22D69BF7AC49B91A2C0A9DDA3D5CA36AD20FC478E37
310
E61844E2352865EBCB61A275A65283CAAA9DD27703B4102F5AF51EF5F573B75CBB5AD38BC845F7A49F82A0966A49C2E3EA5EA0ECD326CD965F1DB402C6FA8B51A4658C5C5E2EC9E214602E55810345408596591009A82E7E7FFACA19EEA299B14A0081A705CB3296EBC14CDF658DCD336EA6D1136881AAEB87B81AB9EE53D5
310
F5EB8BC8362082DA24122F98680A4E7930C01A0079749CEA14382A0783E5EBA5A10F8C098456A03D6A4AEB6BB881E2513747552A5DB22C7EDAF83BD5528081A365F7FF06504B0304140006080000CC70623B000000000000000000000000350000006662782F41393633353835312D344632462D344230382D423046372D37
310
39314545314133324237412F76657274696365732E62696E504B0304140006080800CC70623BF270F1330600000004000000360000006662782F41393633353835312D344632462D344230382D423046372D3739314545314133324237412F747269616E676C65732E62696E636660600000504B0304140006080000CC7062
310
3B000000000000000000000000370000006662782F41393633353835312D344632462D344230382D423046372D3739314545314133324237412F617474726962757465732E62696E504B0304140006080800CC70623B08DA0BD19000000041010000360000006662782F41393633353835312D344632462D344230382D4230
310
46372D3739314545314133324237412F6469726563746F72792E786D6C858F410AC3201045AF22B36F53E9A60B35CBEEBAE80D244E44489C6234F4F835464A48035D0DF398FF9F8AF63D0E6CC63039F212F8F9020C7D47C6792B21C5FE7403D62A1188E2E60C98D7234A5830286103A55745067B9D86B8A3CF9C7F90C11DE6
310
07FB144396D7B6A82D282E9A152AD114D5EF2CB866EEE831B8EEA07A7BB5A8D7D61A2BAAEB7FD5F70921FF497D00504B0304140006080800CC70623BEDD1DC58FD000000A00100003B0000006662782F41393633353835312D344632462D344230382D423046372D3739314545314133324237412F7265736F75726365732F
310
636F72652E786D6C8D504B6E833010BD0A9A6D65B00922041947112427E8052C33A156828DFCA97AFC9A40A576D7CDCCE87D344F8F9FBFE667F689CE6B6B3A6039850C8DB2A336530731DC4903D95970676DF82583CCC8193B5861107C72362E3BA4AC096842428D1D7107A5F7182053CF7474E0D507CE32973124857FE48B
310
540F3961CEF244279DE03EB81420DB9EAC1384436FA353E879B1B182C7A8C75DA3C7F453DF353A1075D537A7BA6464B8F535A99AE14A9A2BBD90E350DD183B5CFABE3AF262350B1EF4FC9351399401471025A527C218A1E53BAB5A5AB765F5469B96525EACF23FA6B88CFF34456DC2A1DCE36E360F82A5202F42F062ED2BAD
310
579969AFDD8A6F504B010214000A0000080000CC70623B3DEE336E79000000790000001B00000000000000000000000000000000006175746F6465736B2D64657369676E2D7061636B6167652E786D6C504B01021400140006080800CC70623BD486FD9CA0000000F40000001300000000000000000000000000B20000005B
310
436F6E74656E745F54797065735D2E786D6C504B01021400140006080800CC70623B853B8169EB0000007C010000080000000000000000000000000083010000636F72652E786D6C504B01021400140006080800CC70623B55019EA25F0000007C000000070000000000000000000000000094020000636E782E786D6C504B
310
01021400140006080800CC70623BDBABAAF470010000D40300000C00000000000000000000000000180300006662782F636F72652E786D6C504B01021400140006080800CC70623B9C113CC27E0000009D0000000B00000000000000000000000000B20400006662782F636E782E786D6C504B01021400140006080800CC70
310
623B7DF2F77C2A010000120200003100000000000000000000000000590500006662782F41393633353835312D344632462D344230382D423046372D3739314545314133324237412F636F72652E786D6C504B01021400140006080800CC70623BAD7543B64E010000330300003000000000000000000000000000D2060000
310
6662782F41393633353835312D344632462D344230382D423046372D3739314545314133324237412F636E782E786D6C504B01021400140006080800CC70623BE75B7789680500003C10000034000000000000000000000000006E0800006662782F41393633353835312D344632462D344230382D423046372D3739314545
310
314133324237412F6F626A656374732E786D6C504B01021400140006080000CC70623B0000000000000000000000003500000000000000000000000000280E00006662782F41393633353835312D344632462D344230382D423046372D3739314545314133324237412F76657274696365732E62696E504B01021400140006
310
080800CC70623BF270F133060000000400000036000000000000000000000000007B0E00006662782F41393633353835312D344632462D344230382D423046372D3739314545314133324237412F747269616E676C65732E62696E504B01021400140006080000CC70623B0000000000000000000000003700000000000000
310
000000000000D50E00006662782F41393633353835312D344632462D344230382D423046372D3739314545314133324237412F617474726962757465732E62696E504B01021400140006080800CC70623B08DA0BD1900000004101000036000000000000000000000000002A0F00006662782F41393633353835312D344632
310
462D344230382D423046372D3739314545314133324237412F6469726563746F72792E786D6C504B01021400140006080800CC70623BEDD1DC58FD000000A00100003B000000000000000000000000000E1000006662782F41393633353835312D344632462D344230382D423046372D3739314545314133324237412F7265
310
736F75726365732F636F72652E786D6C504B0506000000000E000E0080040000641100000000
  0
XRECORD
  5
53AF
102
{ACAD_REACTORS
330
1F7
102
}
330
1F7
100
AcDbXrecord
280
     1
102
MATERIAL
148
0.0
149
0.0
149
0.0
 93
        0
 94
       63
282
     0
 72
     1
 77
     1
171
     1
175
     1
179
     1
273
     0
  0
XRECORD
  5
1F8
102
{ACAD_REACTORS
330
1F7
102
}
330
1F7
100
AcDbXrecord
280
     1
 70
     1
 90
429727718
  1
30362254-06B7-45E0-A893-8CFA70E3D6BC
310
504B03040A0000080000CC70623B3DEE336E79000000790000001B0000006175746F6465736B2D64657369676E2D7061636B6167652E786D6C3C3F786D6C2076657273696F6E3D22312E302220656E636F64696E673D227574662D3822203F3E3C666F726D6174733E3C666F726D61743E687474703A2F2F736368656D612E
310
6175746F6465736B2E636F6D2F64657369676E2D7061636B6167652F323030393C2F666F726D61743E3C2F666F726D6174733E504B0304140006080800CC70623BD486FD9CA0000000F4000000130000005B436F6E74656E745F54797065735D2E786D6C7D8EC10E82300C865F65E91D8A1E8C310C0EEA1BF002731658846E
310
D98AC1B77784ABF1D8FE5FBFBF75BBCE937A534CCEB38643598122B6FEE978D0B0485F9C41B54DDD7D022595594E1A469170414C76A4D9A4D207E29CF43ECE46F218070CC6BECC4078ACAA135ACF422C856C0E68EA1BF5669944DDD7BCDE7B1F8E415D77AECB980613C2E4AC91FC167A2B244592486606FC29C8FD7F045B9A
310
EF7053A7E60B504B0304140006080800CC70623B1EC5D7A3EB0000007C01000008000000636F72652E786D6C8D90416EC3201045AF82665B6103C6756C6122AB4D4ED00B204C5C94182C03558F5F9C3852BBEB6A467FFE9B197D71FC9E6FE8CBACC17AD7032D0820E3B41FAD9B7A48F1820F808E52ACDEC75F36404ECDA687
310
4D0629A6D5A76597B477D1B89855E747B38B2A041301E95B6E7A08FAD3CCAA50296647B8168BD2573599823EBB0CA76447F43862C7BCCF5EAC59410E4DDD9C7973C2755553CCCFA4C603E3040F1565ED3B1FDE4E432BCA0D9622DAF9795FAF464533826484B498524CD807E51D79ED187F21878E10516EF63F505AC67F42C9
310
BA58B1FDDD071640D2FCC87D2045B96591CB3DA85CB7DCE40F504B0304140006080800CC70623B55019EA25F0000007C00000007000000636E782E786D6C4DCB3B0E80201045D1AD90E915ED2CF8AC45050C11660C8261F98AB1B07AC9C97D42D718D865D3E909258CFD00CCE24AC6E326A164D74DC0B4128928FF32603847
310
2BA13128B1252AC747C6BAB984FC68F0B87FE8960A5C09FE86CFB69FBA01504B0304140006080800CC70623B8C9102E971010000D40300000C0000006662782F636F72652E786D6CC5535B6E833010BC8AE5DF0A6C08340F1947A84D4ED00B38C6A128602363A31CBFCB234A53A551FA553EC09AD9F5CE8C31DB9E9B1AF5CA
310
7695D1198E428A91D2D214952E33ECDD315861B4E5CC1AE3BE9561A445A3323CC098B3D21ADFCE9034DA29ED00D5A6503328BA4E398C640D8B0C77F253352214DE4145770A5B214FA2546114020D759C75CE8200340D19DE981F0F6746269C33EFAB6266AB02A655C74A59CCF365BADC27CB5D902ED22848F6340DF238A141
310
BE88E2F57B92BFEDF23523433367AE6A2EEAA455C2A902F398D2751045018D3FA264435F3771F242571B4A1919CA6F9A7C5B3CD9E42BED16F12C776AEB308F40C848FC700B1139D4891EF410CEC810227CC6846F8386402064270EF5C5C709A05E49676C024C61FC95EA45ED154CA5211D1FF4FB8291A913A68E9B83EBBB33
310
E2A7673CDE118E5AE8124C0807CB8377834E366998436B950D7A7746DAD846D4CFD978E0F04FD455FC5D49D2D4C6FE9722321F10997F0F32DC47FE05504B0304140006080800CC70623BFFEA85907E0000009D0000000B0000006662782F636E782E786D6C4DCCD10A83201886E15B91FFDC95D95A811AB6F23E625948A6C3
310
E9D8E5AF46073BFAE0E1E365ED67B3E8ADC3CB78C7815C7240DA3DFC64DCC221C519D7805AC182F7F1EF06C88D9BE6703008B6049F9E274D7A1E938DBB5AE3D6131B2589BA0D3D965551E0B2EA732C9B9A624AAEB41E3A557677029960D9AFB4EF11165F504B0304140006080800CC70623B4FEEA4082C0100001202000031
310
0000006662782F39464131463745442D413632322D343644302D413938332D3331353338454246344243312F636F72652E786D6C8D515B6EC32010BC0AE2AB55850DD871ED0813254D72825EC00192A2C460F1A872FC42ED48ED5F7E00CDCECCCEB26C731F6FE05B39AFADE921293004CA082BB5B9F43086336A21D870E6AC
310
0D7F68109861543DCC30E4ECE26C9C164858139409093556AA051CBC570102714B8F1E7AF1A5C6A11862480C7F2DA6415C878B2A4891CA89C7990F2E050073937C42DE1DB7E4F87ED8A36D4329AA9B3D46DBAEAD504556557BD81DEBDD0761E52CE42C462D17B996298E3E6BE59E35C962CE821E1FF18553435012728A7187
310
0841987E927A8D9B35ADDF70BBC6989599FE4F1427F9A4286A132ABAC49D651EF234CD5CE04CDA78BA3DC2A8FB645D00B9DF8B57E215725C60BCA2A463E54C4CE327C7A65E1C7DB02E7DEFCBF594B864C5CA6CDBD49C957943E9FA5D5FBAF336F90F504B0304140006080800CC70623BAD7543B64E01000033030000300000
310
006662782F39464131463745442D413632322D343644302D413938332D3331353338454246344243312F636E782E786D6CD593CD6EC32010845F0571AD6CE3D48AD20813A9873E410FBD12D82434182C7EAAE6EDBB2424CD25871E7B41D6EC30B3FA84F9E67BB2E40B4234DE8DB46F1925E094D7C6ED479AD3AE5951B2113C
310
789FEE6C943839C1488B4C05DF079FE72A69D8C96C13AAD6B8631503449F83828872B949AC57D26200B826A308D316B4064D6E46FCDA41C05550DC9E483A00797BFD207EFB092A45DE9514C1BBD22178396BD39D891265658C238DEA00936C654E5E433CB65A26D9F6EDB5EBC14EBF49A45CB856E66048291F6939A9A81BB5
310
C8917738143CA680F4AA299D66A042CEB3354A2684DC9D8D178FE0D9B8B41CAAD720F880EE7EF93C0C18769E099ECC04D5A102C8049A8A05632F4DDF376CF1DE0F6BB65C2F8627B65A33C6BB62177CEBBDAD973006829F89F22E814B54F4BC2BE347F8AA8F681390B50FA73F804400B5F542E796F19FF974E7F78DB802FE05
310
E207504B0304140006080800CC70623B16AB87BA640500003C100000340000006662782F39464131463745442D413632322D343644302D413938332D3331353338454246344243312F6F626A656374732E786D6CAD575B6FA33818FD2B887DE6924B3BED8A326A92B68A663B534DD4D13E548A0C38942D60649B369D5FBFC7
310
600890A493BDE42160637FD7F31D7FF63E6FB3D478A55C242CBF3247B66B1A340F5994E4F19559CA8D75611A9F7D8F33263BCB4C232719BD32D5B4E97B316765A1A722BA21652A07B3B7B33F0D11D29C9A46981221AE4C113ED38CD8A4942CA2E2C58E882476BCD9DA23BB5ED8171B73523C0F841684D35CC252CCE79062D4
310
468DFA43D7747CCF51DF7D4FFDEB5593E3AB9CCA9FBEFE241792E4E19EB28198C968BAB8199F5D5A67D3E9C49A9E8F47D6EC76B6B0469F26EEFC7C3EBFBCBEB98462213924694B38DD98FE1D62C393D073EA4FADC5DAF04326852CCF6958F90F0F2B9BB5C48816348F90C7840A68EB78EDF68723159BCEE7891A6B95DDE9D3
310
BCEAEEE8086A6C6F9E5D4B59F0175C10A7A0820BAA5055C7473B5AE3CFDD452D602CD5DF12616444529E90D448938013FE6EFA58AA96F85E4F8C42275708571E98FE6827AF6B2B4AE3D7D83D64E5A64C53054DD3AF90BD06FEA9149565C94FCA0F6B834DC85599E4F2423B24DF0B6AFA979E534DFA9E7A4CC6FA631D486393
310
921829879BF5D781A373557BCB85E97FB90DB62B558F8795179C15944B051F40AB495CF35451D26A4727654E6D8033BD98EF82F21D91FF8AF2DD9982BCF1643BDD4EB516C9492E368C67C88DED563FC36D5EACF66DFF057C3658BDBFA69DF9578B3DA735B64F18C7F20770A9D45CFCF7FCF563D6456A277DBEF78A02637CA2
310
43B90A490AEAB94F72244481D24819A6C0E59B606BFA4B3025981DBB48EAB701D97BF19C577CC77F2D1B6C55A9EF3C732474C0B727303F625995056C3B02963D9EAC146BE78EC5FCEC7FA999EBC5EACBAAE41B12D27B4D2C0BBA49F244E2ECDC81B76B502F113D8F5EE8FB1BE3111CDD4FC2AA9B844CAB1288B68AB90A7CDC
310
1C166AB0D3DC5310625FCC14E779BFD0709F8890A629C9292B1B2DED31A4B0DA928CEE135085754027E3018A397D4D5427D15BD1330B677DC8934285AC3DF45A9EB68FF8F2B8FC0A509AFEECFD0FF2DE25CC6047F7214B195F07EFEB9A094D800F7BFAE8FED187B78EA8A3A400F115961BCAD1215E47C966530AF0EE8128FE
310
58CEBB996A8964FFA529A046635D9353B0336A8F700DDF46271A024E70B0B37C9DE01847591E54DED53D54202AB947E4076556AC49C6CA5C9E1226B7F1A7B1BE15DEED62C41B91E1B3E9AFAAA735036547343A925075041DF0A9979E893B391F8FCFA6967B3EFB644DCF6E5CEBFAE272625DCC6FAF3FB93793C5F90CE1EF57
310
407342756B10D1C489E8953CD1617E5CEECAD6F4EF8914CE5D5D504E5C3F1F9736DA62CFC11E00BCDDB8CC8A9466349744C1F75EBDA4DF09BA8A9E8C7A7E9991989E20E5DBDD6A6003664ED8F7A04A8DBE0DF6EAD9B9AA858342E47399053949D2C146EDB85DE4B176BB0965FBAC19BD19AA918E27FA50C1D22402E144464C
310
59462568E704B6E71915404CB72B8FF4EDE184DDAF753F284990D2C6926782963815403548A70C657FDEF80D2D9CEAA2AE4C1C76F60BFE74219A06527D6582DF6412526107381E55E353090704D085B52408D0933C4ED159D79BDA71BB4BC506F4831350EB6F979CD22D69BF7AC49B91A2C0A9DDA3D5CA36AD20FC478E37E6
310
1844E2352865EBCB6EA275A652E3836BE04EFB400BF1A2556F515F1FBB35B2AB35BD889C744FFA1004B5544B121E57F70215746DD2F5E2C1412B602CBF19455AC6C8E5E9922C4E01E65215385004546899059180EAFCF7A707CE7017CD8CDB0410789AB32C63B91E5CEBBBACB17AC6CD347A022D5075FD106377347AAABA7E
310
7D11590744509B44E205134DC1290F06580320F78E537D3D73540E06CB970B431F185308AD40BBD794D6D77003C5A36E8EAA54BA64597CD8F83BD552A080A365F7FF06504B0304140006080000CC70623B000000000000000000000000350000006662782F39464131463745442D413632322D343644302D413938332D3331
310
353338454246344243312F76657274696365732E62696E504B0304140006080800CC70623BF270F1330600000004000000360000006662782F39464131463745442D413632322D343644302D413938332D3331353338454246344243312F747269616E676C65732E62696E636660600000504B0304140006080000CC70623B
310
000000000000000000000000370000006662782F39464131463745442D413632322D343644302D413938332D3331353338454246344243312F617474726962757465732E62696E504B0304140006080800CC70623B08DA0BD19000000041010000360000006662782F39464131463745442D413632322D343644302D413938
310
332D3331353338454246344243312F6469726563746F72792E786D6C858F410AC3201045AF22B36F53E9A60B35CBEEBAE80D244E44489C6234F4F835464A48035D0DF398FF9F8AF63D0E6CC63039F212F8F9020C7D47C6792B21C5FE7403D62A1188E2E60C98D7234A5830286103A55745067B9D86B8A3CF9C7F90C11DE607
310
FB144396D7B6A82D282E9A152AD114D5EF2CB866EEE831B8EEA07A7BB5A8D7D61A2BAAEB7FD5F70921FF497D00504B0304140006080800CC70623B0D6EF93BFE000000A00100003B0000006662782F39464131463745442D413632322D343644302D413938332D3331353338454246344243312F7265736F75726365732F63
310
6F72652E786D6C8D50596E833010BD0A9ADFCA60B334011947A8694ED00B586642AC041B79A97AFC9A40A5F6AF3F33A3B7689E1E3F7DCD8FEC139DD7D6F4C0720A191A65476DA61E62B892236427C19DB5E1970C322367EC618541F0C9D9B8EC90B226A009093576C41D94DE63804C3DD2D18357379C652E63480A7FCF17A9
310
EE72C29CE5894E3AC17D702940B63D59270887DE46A7D0F36263058F518FBB468FE9A7BE6A7420864373B8D4873369AA8691FA421B3294352543C5CAF65C0F6FEF43CB8BD52C78D0F34F46E550061C419494B6843142CB0F5677F4B52BEB177AEC28E5C52AFF638ACBF84F53D42654E51E77B379102C05791282176B5F693D
310
CB4C7BED567C03504B010214000A0000080000CC70623B3DEE336E79000000790000001B00000000000000000000000000000000006175746F6465736B2D64657369676E2D7061636B6167652E786D6C504B01021400140006080800CC70623BD486FD9CA0000000F40000001300000000000000000000000000B20000005B
310
436F6E74656E745F54797065735D2E786D6C504B01021400140006080800CC70623B1EC5D7A3EB0000007C010000080000000000000000000000000083010000636F72652E786D6C504B01021400140006080800CC70623B55019EA25F0000007C000000070000000000000000000000000094020000636E782E786D6C504B
310
01021400140006080800CC70623B8C9102E971010000D40300000C00000000000000000000000000180300006662782F636F72652E786D6C504B01021400140006080800CC70623BFFEA85907E0000009D0000000B00000000000000000000000000B30400006662782F636E782E786D6C504B01021400140006080800CC70
310
623B4FEEA4082C0100001202000031000000000000000000000000005A0500006662782F39464131463745442D413632322D343644302D413938332D3331353338454246344243312F636F72652E786D6C504B01021400140006080800CC70623BAD7543B64E010000330300003000000000000000000000000000D5060000
310
6662782F39464131463745442D413632322D343644302D413938332D3331353338454246344243312F636E782E786D6C504B01021400140006080800CC70623B16AB87BA640500003C1000003400000000000000000000000000710800006662782F39464131463745442D413632322D343644302D413938332D3331353338
310
454246344243312F6F626A656374732E786D6C504B01021400140006080000CC70623B0000000000000000000000003500000000000000000000000000270E00006662782F39464131463745442D413632322D343644302D413938332D3331353338454246344243312F76657274696365732E62696E504B01021400140006
310
080800CC70623BF270F133060000000400000036000000000000000000000000007A0E00006662782F39464131463745442D413632322D343644302D413938332D3331353338454246344243312F747269616E676C65732E62696E504B01021400140006080000CC70623B0000000000000000000000003700000000000000
310
000000000000D40E00006662782F39464131463745442D413632322D343644302D413938332D3331353338454246344243312F617474726962757465732E62696E504B01021400140006080800CC70623B08DA0BD190000000410100003600000000000000000000000000290F00006662782F39464131463745442D413632
310
322D343644302D413938332D3331353338454246344243312F6469726563746F72792E786D6C504B01021400140006080800CC70623B0D6EF93BFE000000A00100003B000000000000000000000000000D1000006662782F39464131463745442D413632322D343644302D413938332D3331353338454246344243312F7265
310
736F75726365732F636F72652E786D6C504B0506000000000E000E0080040000641100000000
  0
XRECORD
  5
53B1
102
{ACAD_REACTORS
330
173
102
}
330
173
100
AcDbXrecord
280
     1
102
MATERIAL
148
0.0
149
0.0
149
0.0
 93
        0
 94
       63
282
     0
 72
     1
 77
     1
171
     1
175
     1
179
     1
273
     0
  0
XRECORD
  5
175
102
{ACAD_REACTORS
330
173
102
}
330
173
100
AcDbXrecord
280
     1
270
     1
271
     1
  0
XRECORD
  5
174
102
{ACAD_REACTORS
330
173
102
}
330
173
100
AcDbXrecord
280
     1
270
     1
271
     1
  0
XRECORD
  5
1FB
102
{ACAD_REACTORS
330
173
102
}
330
173
100
AcDbXrecord
280
     1
 70
     0
 90
1673772943
  1
ECE7A1D2-D628-4531-984C-D00F80459256
310
504B03040A0000080000CC70623B3DEE336E79000000790000001B0000006175746F6465736B2D64657369676E2D7061636B6167652E786D6C3C3F786D6C2076657273696F6E3D22312E302220656E636F64696E673D227574662D3822203F3E3C666F726D6174733E3C666F726D61743E687474703A2F2F736368656D612E
310
6175746F6465736B2E636F6D2F64657369676E2D7061636B6167652F323030393C2F666F726D61743E3C2F666F726D6174733E504B0304140006080800CC70623BD486FD9CA0000000F4000000130000005B436F6E74656E745F54797065735D2E786D6C7D8EC10E82300C865F65E91D8A1E8C310C0EEA1BF002731658846E
310
D98AC1B77784ABF1D8FE5FBFBF75BBCE937A534CCEB38643598122B6FEE978D0B0485F9C41B54DDD7D022595594E1A469170414C76A4D9A4D207E29CF43ECE46F218070CC6BECC4078ACAA135ACF422C856C0E68EA1BF5669944DDD7BCDE7B1F8E415D77AECB980613C2E4AC91FC167A2B244592486606FC29C8FD7F045B9A
310
EF7053A7E60B504B0304140006080800CC70623BD9DDAED0EC0000007C01000008000000636F72652E786D6C8D90416EC3201045AF82665B61836D9CD8C2444DD39CA01740405C94182C03558F5F9C3852BBEB6A467FFE9B197D7EF89E6EE8CB2CC17A37002D0820E394D7D68D03A478C17B4007C117EFE32F1B20272733C0
310
2A83E0E3E2D3BC49CABB685CCCAAF3DA6CA20CC14440EA969B0182FA34932C648AD911AEC52CD5558EA6A0CF2EC329598D1E47ACCEFBECC59A050463A7EA5833865FEBDD0E37353BE3EE8DBDE3F6786A48D375FBF6CC78B9C282473B3DEFABC5C86834888A900E538A49F5419B9EB47DD5BC907D4F082F57FB1F28CDFA9F50
310
B22ED6D5F6EE030B20687EE43E10BC5CB3C8E51E54AE6B6EE207504B0304140006080800CC70623B55019EA25F0000007C00000007000000636E782E786D6C4DCB3B0E80201045D1AD90E915ED2CF8AC45050C11660C8261F98AB1B07AC9C97D42D718D865D3E909258CFD00CCE24AC6E326A164D74DC0B4128928FF326038
310
472BA13128B1252AC747C6BAB984FC68F0B87FE8960A5C09FE86CFB69FBA01504B0304140006080800CC70623BA24EB22D72010000D40300000C0000006662782F636F72652E786D6CC5535B6E833010BC8AE5DF0A6C5E49888CA3A6694ED00B38E05014B091B1518EDFE511A5A9D228FD2A1F60CDEC7A67C6986DCE4D8D7A
310
69BA4AAB0C073EC548AA5C17952A33ECECD15B61B4E1CC686DBF9561A44423333CC098B3D268D7CE50AE9595CA02AA74216750749DB418E5352C32DCE59FB211BE70162ABA93DF8AFC244AE9073ED050C759670D0840D390E18DF9F1706664C23973AE2A66B62A605A75ACA4C13C4976E1364A12EF355A2EBD384AF65EFA96
310
BC7B8BED2EA6719AAE16FB8491A199335B351775B991C2CA02F390D2D40B028F861F41BCA68B7518BFD0D59A524686F29B26D7164F36B94AD9289CE54E6D1DE6010819891F6E21228B3AD1831EC219194284CF98F06DD01008846CC5A1BEF83801D4CBDC6A1303536877A57A513B0953A94FC707FDBE6064EA84A9E3E6E0FA
310
EE8CF0E9198F7784A316AA0413C2C2F2E0ECA0934D1AE6D05A69BCDE9E91D2A611F573361E38FC1375157F5752AE6B6DFE4B11990F88CCBF0719EE23FF02504B0304140006080800CC70623B408A7D3B7C0000009D0000000B0000006662782F636E782E786D6C4DCCD10A83201886E15B91FFDC552A92A0064DBC8F581632
310
D3703A76F9ABD1C18E3E78F878E5F0D9027ABBFCF2292AE86E2D20171F69F6715550CB827B40839639A5F2770314A7CD293819B45C73AAFB45B35BA61ACAA1C1C7E7855C58C15BC331339661262CC762340413D68D77DA5B42298546CBE6573AF60CEB2F504B0304140006080800CC70623B449FB9BD290100001202000031
310
0000006662782F36394639363044362D344446342D343946362D394244322D3234314243333846323333332F636F72652E786D6C8D515B6EC32010BC0AE22B55850D98B871848994463E412FE002495162B07854397EA176A4F62F3F2C9A9D991D587EB84F37F0AD7D30CEF6905418026DA553C65E7A98E219ED203808EE9D
310
8B7F6810D871D23D2C3014FCE25D9A57483A1BB58D19B54EE9151C43D0110279CB971E06F9A5A7B11A53CC8C70ADE6515EC78BAE4895DB992778883E0700CB907242D17643D7E2538BD869608875438BBAE38922CAC8F1BDD90DB4691A5E2F42C153326A951B95E398B3D1FE599322163C9AE9115F7A3D46ADA0A018778810
310
84E907617BDCEE297BC5BB3DC6BC2EF47FA234AB2745C9D8D8D035EE220B50105E2F0DC1954B9FB747187D9F9D8FA0CCDB042D5FA0C015C65B42DF78BD10F3F3B363CB56C7109DCFDFBBB97E662ED92EB62D13BC2E1BCAE5777DB9966D8A1F504B0304140006080800CC70623BAD7543B64E01000033030000300000006662
310
782F36394639363044362D344446342D343946362D394244322D3234314243333846323333332F636E782E786D6CD593CD6EC32010845F0571AD6CE3D48AD20813A9873E410FBD12D82434182C7EAAE6EDBB2424CD25871E7B41D6EC30B3FA84F9E67BB2E40B4234DE8DB46F1925E094D7C6ED479AD3AE5951B2113C789FEE
310
6C943839C1488B4C05DF079FE72A69D8C96C13AAD6B8631503449F83828872B949AC57D26200B826A308D316B4064D6E46FCDA41C05550DC9E483A00797BFD207EFB092A45DE9514C1BBD22178396BD39D891265658C238DEA00936C654E5E433CB65A26D9F6EDB5EBC14EBF49A45CB856E66048291F6939A9A81BB5C89177
310
38143CA680F4AA299D66A042CEB3354A2684DC9D8D178FE0D9B8B41CAAD720F880EE7EF93C0C18769E099ECC04D5A102C8049A8A05632F4DDF376CF1DE0F6BB65C2F8627B65A33C6BB62177CEBBDAD973006829F89F22E814B54F4BC2BE347F8AA8F681390B50FA73F804400B5F542E796F19FF974E7F78DB802FE05E20750
310
4B0304140006080800CC70623B8D05915C650500003B100000340000006662782F36394639363044362D344446342D343946362D394244322D3234314243333846323333332F6F626A656374732E786D6CAD575B6FA33814FE2B887D06429276DA1565D4266D158D3A339A6846FB502932E050B66023DB74D2FDF5FB190C01
310
9276B2973C046C8ECFF53B17071F77456EBD502133CEAE6CDF9DD81665314F32965ED995DA3A17B6F5310C04E7AA47665B8C14F4CAD6DB7618A48257A5D94AE89654B91AEDDEDDFC61C998326A5B714EA4BCB265FC440BE2924AF184CA6737218AB8E976E7FA6E4338649B0A523E8D98964450A6A029F619B8588D52FE7039
310
B1BD30F0F4F730D0FF866AF6369557DB33949F31A9088B0F848DD8CCFCF9F2767A76E99CCDE733677E3EF59D9BBB9BA5E37F984D16E78BC5E5F5ED25044B25C0C96822E8D60EEFE11B91C581D77CEA34368A1F5329E68CD1B8B61F16D63A1B8E092D294B10C78C4A48EB593D192E7DED9BDEE7995E1B91FDEDD3ACEA9FE831
310
6A756F9F7D4D79F4274C90A7A04248AA51D5F8C718DAE06FB2F75AC4796EBE65D22A88A22223B995679120E2D50E41AA49C260C046A35368846B0BECD0DFF3EBEB8AD4F835768F69B9ADF25C43D30E6B646F807FAA64AD59F61715C7A54127C4AACA98BA3006A9D792DAE165E0D59B61A01FB3A9F9D838D2DAE62445C86166
310
F37564E842E7DE6A69879FEEA2DD5AE7E371E1A5E025154AC307D06A03D73EB5978C58FFA4C8E9033066E0F3BD53BEC1F39F91BE7B55103791EDE6BBB991A2046172CB4581D8B893FA674DDA17A77B3B7C413D1B511FD2743BFF8A38F03A658705E3ADF8015C3A3417FF3D7E439FF591DA0B5F18BC20C1B8981957AE6392A3
310
F43C640C01D1A0B4728E2DD4F26DB4B3C3152A252A3B4E913CEC1C72F012782FF88EFF8637AA552DBEF76408E8A8DE9E50F9E1CB3A2DA0DB1B6039A893B56063DC5B3E3FFB5F72E67AB9FEB4AEC496C4F4C1149625DD662C53E89D7BF0F6151A046260D1337DFDC94502430F83B0EE07A130A224BCAD7DAE1D9FB6CD422FF6
310
920702629C4BB9AE79C12F243C6432A6794E18E5552BA56B431AAB5D91317302B2B071E86C3A42B1A02F999E24061403B5D0EB639195DA655DD3EBEAB4FB862DDF579F014AD0E73C22F99E28DA57FB98E75C6CA2D74D53086D600F4786E0FE3144B771A8A7B900F03594DB8A633CBC49B2EDB69228BB479CF863B5E807AAAB
310
23872F6DFEB4129B949CA33823F58830E86D65621E10047D9DB34D862E8EAC3C2ABC2F7B2C40D67CDFE01F5545B92105AF983AC54D93D69E56FB8E797F88913F898A9FEC705D3F9D1B54EC8426FB500D40A03BD0119B06E1B95DDC7EB8F6975367793EBD70E66733DFB9BC982F9CE564727731999F5D4ECFCE3B8D6A4DC2A0
310
6D50FD148437D110834A64C6CDDF57FBACB5C307A2A477DFE4939736CFEF2B175371E0E10CF0DD1D5C15654E0BCA14D1E87DD02FF93782A162C0A3D95F1524A52770F972BF1EE9809D13CE7DD599467F8ECE9ADD85CE85A34CD45355448C64F9E8A031DC2D596ACC6E5DD93D9B82DE2EF5CAF81363A8E47996A0DE24564A79
310
4115AACE09C55E14540231FDA13C319787134EBF34E3A022514E5B4D9E0826E25C02D5805B15ABE1BEF51B26383D445DD9E875EE33FE4C22DA16427D65A3BCA92CA6D28DD01DF5DC53330704308475351050232CCD31583787BA75774AFB06E5070DD0C8EF484E19968C5D83BA5B90B244D31E54D55A372320FE4786B7EA58
310
44E135AA5467CB7EA333A61683CC6A8C3257034C10CF46F40EF9F5BE59BE5BD30C3C72D235E95D10345C1D45445A5F0BB47E46A5EBE5570F9380B5FA629579952296A773720405982B9DE04011506178964401AA8BDF1FBF0A8EAB6861DD6580C0E38217056766716DAEB2D6FA0917D3E4116581EADB879C4E7CFFB11EFACD
310
3D641311495D92C8676CB409A72D18610D803CE8A626049E8EC1887CB5B44CC39883690DDA8399B4B9855B481E7D71D4A9D22F96E5BB73BF5793020C02137BF837504B0304140006080000CC70623B000000000000000000000000350000006662782F36394639363044362D344446342D343946362D394244322D32343142
310
43333846323333332F76657274696365732E62696E504B0304140006080800CC70623BF270F1330600000004000000360000006662782F36394639363044362D344446342D343946362D394244322D3234314243333846323333332F747269616E676C65732E62696E636660600000504B0304140006080000CC70623B0000
310
00000000000000000000370000006662782F36394639363044362D344446342D343946362D394244322D3234314243333846323333332F617474726962757465732E62696E504B0304140006080800CC70623B08DA0BD19000000041010000360000006662782F36394639363044362D344446342D343946362D394244322D
310
3234314243333846323333332F6469726563746F72792E786D6C858F410AC3201045AF22B36F53E9A60B35CBEEBAE80D244E44489C6234F4F835464A48035D0DF398FF9F8AF63D0E6CC63039F212F8F9020C7D47C6792B21C5FE7403D62A1188E2E60C98D7234A5830286103A55745067B9D86B8A3CF9C7F90C11DE607FB14
310
4396D7B6A82D282E9A152AD114D5EF2CB866EEE831B8EEA07A7BB5A8D7D61A2BAAEB7FD5F70921FF497D00504B0304140006080800CC70623BCA768048FE000000A00100003B0000006662782F36394639363044362D344446342D343946362D394244322D3234314243333846323333332F7265736F75726365732F636F72
310
652E786D6C8D50596E833010BD0A9ADFCA60D600328E9AA639412F609909B1126CE4A5EAF16B0295DABFFECC8CDEA2797AECF8353F924FB44E193D409E5248504B332A3D0D10FC95B4901C39B3C6F85F3248B49871801506CE266BC2B243D2688FDA47549B11775038871E12F988C7004EDE7016A9083E2ADC3D5D84BC8B09
310
D33C8D74D471E6BC8D0192EDC93A815B742658898E651BCB59086ADC356A8C3FD555A1055ED7E7E254D615792D0F075295F585746FF53B694EE78A565DD736979A65AB9933AFE69F8CD2A2F038022F28ED489E135A7CE4554F9BBEA85E68DB53CAB255FEC71496F19FA6A0B42F8B3DEE6673C0F318E4497096AD7DC5F52C33
310
EEB55BFE0D504B010214000A0000080000CC70623B3DEE336E79000000790000001B00000000000000000000000000000000006175746F6465736B2D64657369676E2D7061636B6167652E786D6C504B01021400140006080800CC70623BD486FD9CA0000000F40000001300000000000000000000000000B20000005B436F
310
6E74656E745F54797065735D2E786D6C504B01021400140006080800CC70623BD9DDAED0EC0000007C010000080000000000000000000000000083010000636F72652E786D6C504B01021400140006080800CC70623B55019EA25F0000007C000000070000000000000000000000000095020000636E782E786D6C504B0102
310
1400140006080800CC70623BA24EB22D72010000D40300000C00000000000000000000000000190300006662782F636F72652E786D6C504B01021400140006080800CC70623B408A7D3B7C0000009D0000000B00000000000000000000000000B50400006662782F636E782E786D6C504B01021400140006080800CC70623B
310
449FB9BD290100001202000031000000000000000000000000005A0500006662782F36394639363044362D344446342D343946362D394244322D3234314243333846323333332F636F72652E786D6C504B01021400140006080800CC70623BAD7543B64E010000330300003000000000000000000000000000D20600006662
310
782F36394639363044362D344446342D343946362D394244322D3234314243333846323333332F636E782E786D6C504B01021400140006080800CC70623B8D05915C650500003B10000034000000000000000000000000006E0800006662782F36394639363044362D344446342D343946362D394244322D32343142433338
310
46323333332F6F626A656374732E786D6C504B01021400140006080000CC70623B0000000000000000000000003500000000000000000000000000250E00006662782F36394639363044362D344446342D343946362D394244322D3234314243333846323333332F76657274696365732E62696E504B010214001400060808
310
00CC70623BF270F13306000000040000003600000000000000000000000000780E00006662782F36394639363044362D344446342D343946362D394244322D3234314243333846323333332F747269616E676C65732E62696E504B01021400140006080000CC70623B00000000000000000000000037000000000000000000
310
00000000D20E00006662782F36394639363044362D344446342D343946362D394244322D3234314243333846323333332F617474726962757465732E62696E504B01021400140006080800CC70623B08DA0BD190000000410100003600000000000000000000000000270F00006662782F36394639363044362D344446342D
310
343946362D394244322D3234314243333846323333332F6469726563746F72792E786D6C504B01021400140006080800CC70623BCA768048FE000000A00100003B000000000000000000000000000B1000006662782F36394639363044362D344446342D343946362D394244322D3234314243333846323333332F7265736F
310
75726365732F636F72652E786D6C504B0506000000000E000E0080040000621100000000
  0
XRECORD
  5
176
102
{ACAD_REACTORS
330
173
102
}
330
173
100
AcDbXrecord
280
     1
270
     1
271
     1
  0
XRECORD
  5
177
102
{ACAD_REACTORS
330
173
102
}
330
173
100
AcDbXrecord
280
     1
270
     1
271
     1
  0
XRECORD
  5
53D3
102
{ACAD_REACTORS
330
53D2
102
}
330
53D2
100
AcDbXrecord
280
     1
102
ACAD_ROUNDTRIP_2012_MLEADER_STYLE
298
     1
  0
XRECORD
  5
53E5
102
{ACAD_REACTORS
330
53E4
102
}
330
53E4
100
AcDbXrecord
280
     1
102
DISPLAYNAME
  1
Metric50
102
FLAGS
 90
        0
  0
CELLSTYLEMAP
  5
53A5
102
{ACAD_REACTORS
330
162
102
}
330
162
100
AcDbCellStyleMap
 90
        3
300
CELLSTYLE
  1
TABLEFORMAT_BEGIN
 90
        5
170
     1
 91
        0
 92
    32768
 62
   257
 93
        1
300
CONTENTFORMAT
  1
CONTENTFORMAT_BEGIN
 90
        0
 91
        0
 92
      512
 93
        0
300

 40
0.0
140
1.0
 94
        5
 62
     0
340
11
144
6.0
309
CONTENTFORMAT_END
171
     1
301
MARGIN
  1
CELLMARGIN_BEGIN
 40
1.5
 40
1.5
 40
1.5
 40
1.5
 40
4.5
 40
4.5
309
CELLMARGIN_END
 94
        6
 95
        1
302
GRIDFORMAT
  1
GRIDFORMAT_BEGIN
 90
        0
 91
        1
 62
     0
 92
       -2
340
14
 93
        0
 40
1.125
309
GRIDFORMAT_END
 95
        2
302
GRIDFORMAT
  1
GRIDFORMAT_BEGIN
 90
        0
 91
        1
 62
     0
 92
       -2
340
14
 93
        0
 40
1.125
309
GRIDFORMAT_END
 95
        4
302
GRIDFORMAT
  1
GRIDFORMAT_BEGIN
 90
        0
 91
        1
 62
     0
 92
       -2
340
14
 93
        0
 40
1.125
309
GRIDFORMAT_END
 95
        8
302
GRIDFORMAT
  1
GRIDFORMAT_BEGIN
 90
        0
 91
        1
 62
     0
 92
       -2
340
14
 93
        0
 40
1.125
309
GRIDFORMAT_END
 95
       16
302
GRIDFORMAT
  1
GRIDFORMAT_BEGIN
 90
        0
 91
        1
 62
     0
 92
       -2
340
14
 93
        0
 40
1.125
309
GRIDFORMAT_END
 95
       32
302
GRIDFORMAT
  1
GRIDFORMAT_BEGIN
 90
        0
 91
        1
 62
     0
 92
       -2
340
14
 93
        0
 40
1.125
309
GRIDFORMAT_END
309
TABLEFORMAT_END
  1
CELLSTYLE_BEGIN
 90
        1
 91
        1
300
_TITLE
309
CELLSTYLE_END
300
CELLSTYLE
  1
TABLEFORMAT_BEGIN
 90
        5
170
     1
 91
        0
 92
        0
 62
   257
 93
        1
300
CONTENTFORMAT
  1
CONTENTFORMAT_BEGIN
 90
        0
 91
        0
 92
      512
 93
        0
300

 40
0.0
140
1.0
 94
        5
 62
     0
340
11
144
4.5
309
CONTENTFORMAT_END
171
     1
301
MARGIN
  1
CELLMARGIN_BEGIN
 40
1.5
 40
1.5
 40
1.5
 40
1.5
 40
4.5
 40
4.5
309
CELLMARGIN_END
 94
        6
 95
        1
302
GRIDFORMAT
  1
GRIDFORMAT_BEGIN
 90
        0
 91
        1
 62
     0
 92
       -2
340
14
 93
        0
 40
1.125
309
GRIDFORMAT_END
 95
        2
302
GRIDFORMAT
  1
GRIDFORMAT_BEGIN
 90
        0
 91
        1
 62
     0
 92
       -2
340
14
 93
        0
 40
1.125
309
GRIDFORMAT_END
 95
        4
302
GRIDFORMAT
  1
GRIDFORMAT_BEGIN
 90
        0
 91
        1
 62
     0
 92
       -2
340
14
 93
        0
 40
1.125
309
GRIDFORMAT_END
 95
        8
302
GRIDFORMAT
  1
GRIDFORMAT_BEGIN
 90
        0
 91
        1
 62
     0
 92
       -2
340
14
 93
        0
 40
1.125
309
GRIDFORMAT_END
 95
       16
302
GRIDFORMAT
  1
GRIDFORMAT_BEGIN
 90
        0
 91
        1
 62
     0
 92
       -2
340
14
 93
        0
 40
1.125
309
GRIDFORMAT_END
 95
       32
302
GRIDFORMAT
  1
GRIDFORMAT_BEGIN
 90
        0
 91
        1
 62
     0
 92
       -2
340
14
 93
        0
 40
1.125
309
GRIDFORMAT_END
309
TABLEFORMAT_END
  1
CELLSTYLE_BEGIN
 90
        2
 91
        1
300
_HEADER
309
CELLSTYLE_END
300
CELLSTYLE
  1
TABLEFORMAT_BEGIN
 90
        5
170
     1
 91
        0
 92
        0
 62
   257
 93
        1
300
CONTENTFORMAT
  1
CONTENTFORMAT_BEGIN
 90
        0
 91
        0
 92
      512
 93
        0
300

 40
0.0
140
1.0
 94
        2
 62
     0
340
11
144
4.5
309
CONTENTFORMAT_END
171
     1
301
MARGIN
  1
CELLMARGIN_BEGIN
 40
1.5
 40
1.5
 40
1.5
 40
1.5
 40
4.5
 40
4.5
309
CELLMARGIN_END
 94
        6
 95
        1
302
GRIDFORMAT
  1
GRIDFORMAT_BEGIN
 90
        0
 91
        1
 62
     0
 92
       -2
340
14
 93
        0
 40
1.125
309
GRIDFORMAT_END
 95
        2
302
GRIDFORMAT
  1
GRIDFORMAT_BEGIN
 90
        0
 91
        1
 62
     0
 92
       -2
340
14
 93
        0
 40
1.125
309
GRIDFORMAT_END
 95
        4
302
GRIDFORMAT
  1
GRIDFORMAT_BEGIN
 90
        0
 91
        1
 62
     0
 92
       -2
340
14
 93
        0
 40
1.125
309
GRIDFORMAT_END
 95
        8
302
GRIDFORMAT
  1
GRIDFORMAT_BEGIN
 90
        0
 91
        1
 62
     0
 92
       -2
340
14
 93
        0
 40
1.125
309
GRIDFORMAT_END
 95
       16
302
GRIDFORMAT
  1
GRIDFORMAT_BEGIN
 90
        0
 91
        1
 62
     0
 92
       -2
340
14
 93
        0
 40
1.125
309
GRIDFORMAT_END
 95
       32
302
GRIDFORMAT
  1
GRIDFORMAT_BEGIN
 90
        0
 91
        1
 62
     0
 92
       -2
340
14
 93
        0
 40
1.125
309
GRIDFORMAT_END
309
TABLEFORMAT_END
  1
CELLSTYLE_BEGIN
 90
        3
 91
        2
300
_DATA
309
CELLSTYLE_END
  0
XRECORD
  5
53AA
102
{ACAD_REACTORS
330
162
102
}
330
162
100
AcDbXrecord
280
     1
102
ACAD_ROUNDTRIP_PRE2007_TABLESTYLE
 90
      512
 91
        0
  1

 92
      512
 93
        0
  2

 94
      512
 95
        0
  3

  0
XRECORD
  5
53BD
102
{ACAD_REACTORS
330
53BC
102
}
330
53BC
100
AcDbXrecord
280
     1
102
RTVSPost2010Prop28
280
     1
102
RTVSPost2010PropOp28
 70
     1
102
RTVSPost2010Prop29
280
     1
102
RTVSPost2010PropOp29
 70
     1
102
RTVSPost2010Prop30
280
     0
102
RTVSPost2010PropOp30
 70
     1
102
RTVSPost2010Prop31
280
     0
102
RTVSPost2010PropOp31
 70
     1
102
RTVSPost2010Prop32
280
     0
102
RTVSPost2010PropOp32
 70
     1
102
RTVSPost2010Prop33
280
     0
102
RTVSPost2010PropOp33
 70
     1
102
RTVSPost2010Prop34
280
     0
102
RTVSPost2010PropOp34
 70
     1
102
RTVSPost2010Prop35
280
     0
102
RTVSPost2010PropOp35
 70
     1
102
RTVSPost2010Prop36
280
     0
102
RTVSPost2010PropOp36
 70
     1
102
RTVSPost2010Prop37
 90
       50
102
RTVSPost2010PropOp37
 70
     1
102
RTVSPost2010Prop38
140
0.0
102
RTVSPost2010PropOp38
 70
     1
102
RTVSPost2010Prop39
140
1.0
102
RTVSPost2010PropOp39
 70
     1
102
RTVSPost2010Prop40
 90
        0
102
RTVSPost2010PropOp40
 70
     1
102
RTVSPost2010Prop41ColorIndex
 90
       18
102
RTVSPost2010Prop41ColorRGB
 90
        0
102
RTVSPost2010PropOp41
 70
     1
102
RTVSPost2010Prop42
 90
       50
102
RTVSPost2010PropOp42
 70
     1
102
RTVSPost2010Prop43
 90
        3
102
RTVSPost2010PropOp43
 70
     1
102
RTVSPost2010Prop44ColorIndex
 90
        5
102
RTVSPost2010Prop44ColorRGB
 90
      255
102
RTVSPost2010PropOp44
 70
     1
102
RTVSPost2010Prop45
280
     0
102
RTVSPost2010PropOp45
 70
     1
102
RTVSPost2010Prop46
 90
       50
102
RTVSPost2010PropOp46
 70
     1
102
RTVSPost2010Prop47
 90
       50
102
RTVSPost2010PropOp47
 70
     1
102
RTVSPost2010Prop48
 90
       50
102
RTVSPost2010PropOp48
 70
     1
102
RTVSPost2010Prop49
280
     0
102
RTVSPost2010PropOp49
 70
     1
102
RTVSPost2010Prop50
 90
       50
102
RTVSPost2010PropOp50
 70
     1
102
RTVSPost2010Prop51ColorIndex
 90
      256
102
RTVSPost2010Prop51ColorRGB
 90
-16777216
102
RTVSPost2010PropOp51
 70
     0
102
RTVSPost2010Prop52
140
1.0
102
RTVSPost2010PropOp52
 70
     0
102
RTVSPost2010Prop53
 90
        2
102
RTVSPost2010PropOp53
 70
     1
102
RTVSPost2010Prop54
  1
strokes_ogs.tif
102
RTVSPost2010PropOp54
 70
     1
102
RTVSPost2010Prop55
280
     0
102
RTVSPost2010PropOp55
 70
     1
102
RTVSPost2010Prop56
140
1.0
102
RTVSPost2010PropOp56
 70
     1
102
RTVSPost2010Prop57
140
1.0
102
RTVSPost2010PropOp57
 70
     1
102
RTVSPropertyOp0
 70
     1
102
RTVSPropertyOp1
 70
     1
102
RTVSPropertyOp2
 70
     1
102
RTVSPropertyOp3
 70
     1
102
RTVSPropertyOp4
 70
     1
102
RTVSPropertyOp5
 70
     1
102
RTVSPropertyOp6
 70
     1
102
RTVSPropertyOp7
 70
     1
102
RTVSPropertyOp8
 70
     1
102
RTVSPropertyOp9
 70
     1
102
RTVSPropertyOp10
 70
     1
102
RTVSPropertyOp11
 70
     1
102
RTVSPropertyOp12
 70
     1
102
RTVSPropertyOp13
 70
     1
102
RTVSPropertyOp14
 70
     1
102
RTVSPropertyOp15
 70
     1
102
RTVSPropertyOp16
 70
     1
102
RTVSPropertyOp17
 70
     1
102
RTVSPropertyOp18
 70
     1
102
RTVSPropertyOp19
 70
     1
102
RTVSPropertyOp20
 70
     1
102
RTVSPropertyOp21
 70
     1
102
RTVSPropertyOp22
 70
     1
102
RTVSPropertyOp23
 70
     1
102
RTVSPropertyOp24
 70
     1
102
RTVSPropertyOp25
 70
     1
102
RTVSPropertyOp26
 70
     1
102
RTVSPropertyOp27
 70
     1
102
RTVSPropertyOp28
 70
     1
102
RTVSPropertyOp29
 70
     1
102
RTVSPropertyOp30
 70
     1
102
RTVSPropertyOp31
 70
     1
102
RTVSPropertyOp32
 70
     1
102
RTVSPropertyOp33
 70
     1
102
RTVSPropertyOp34
 70
     1
102
RTVSPropertyOp35
 70
     1
102
RTVSPropertyOp36
 70
     1
102
RTVSPropertyOp37
 70
     1
102
RTVSPropertyOp38
 70
     1
102
RTVSPropertyOp39
 70
     1
102
RTVSPropertyOp40
 70
     1
102
RTVSPropertyOp41
 70
     1
102
RTVSPropertyOp42
 70
     1
102
RTVSPropertyOp43
 70
     1
102
RTVSPropertyOp44
 70
     1
102
RTVSPropertyOp45
 70
     1
102
RTVSPropertyOp46
 70
     1
102
RTVSPropertyOp47
 70
     1
102
RTVSPropertyOp48
 70
     1
102
RTVSPropertyOp49
 70
     1
102
RTVSPropertyOp50
 70
     1
102
RTVSPropertyOp51
 70
     0
102
RTVSPropertyOp52
 70
     0
102
RTVSPropertyOp53
 70
     1
102
RTVSPropertyOp54
 70
     1
102
RTVSPropertyOp55
 70
     1
102
RTVSPropertyOp56
 70
     1
102
RTVSPropertyOp57
 70
     1
102
RTVSPropertyOp58
 70
     1
102
RTVSPropertyOp59
 70
     1
102
RTVSPropertyOp60
 70
     1
102
RTVSPropertyOp61
 70
     1
102
RTVSPropertyOp62
 70
     1
  0
XRECORD
  5
53BB
102
{ACAD_REACTORS
330
53BA
102
}
330
53BA
100
AcDbXrecord
280
     1
102
RTVSPost2010Prop28
280
     0
102
RTVSPost2010PropOp28
 70
     1
102
RTVSPost2010Prop29
280
     1
102
RTVSPost2010PropOp29
 70
     1
102
RTVSPost2010Prop30
280
     1
102
RTVSPost2010PropOp30
 70
     1
102
RTVSPost2010Prop31
280
     0
102
RTVSPost2010PropOp31
 70
     1
102
RTVSPost2010Prop32
280
     0
102
RTVSPost2010PropOp32
 70
     1
102
RTVSPost2010Prop33
280
     0
102
RTVSPost2010PropOp33
 70
     1
102
RTVSPost2010Prop34
280
     0
102
RTVSPost2010PropOp34
 70
     1
102
RTVSPost2010Prop35
280
     0
102
RTVSPost2010PropOp35
 70
     1
102
RTVSPost2010Prop36
280
     0
102
RTVSPost2010PropOp36
 70
     1
102
RTVSPost2010Prop37
 90
       50
102
RTVSPost2010PropOp37
 70
     1
102
RTVSPost2010Prop38
140
0.0
102
RTVSPost2010PropOp38
 70
     1
102
RTVSPost2010Prop39
140
1.0
102
RTVSPost2010PropOp39
 70
     1
102
RTVSPost2010Prop40
 90
        0
102
RTVSPost2010PropOp40
 70
     1
102
RTVSPost2010Prop41ColorIndex
 90
       18
102
RTVSPost2010Prop41ColorRGB
 90
        0
102
RTVSPost2010PropOp41
 70
     1
102
RTVSPost2010Prop42
 90
       50
102
RTVSPost2010PropOp42
 70
     1
102
RTVSPost2010Prop43
 90
        3
102
RTVSPost2010PropOp43
 70
     1
102
RTVSPost2010Prop44ColorIndex
 90
        5
102
RTVSPost2010Prop44ColorRGB
 90
      255
102
RTVSPost2010PropOp44
 70
     1
102
RTVSPost2010Prop45
280
     0
102
RTVSPost2010PropOp45
 70
     1
102
RTVSPost2010Prop46
 90
       50
102
RTVSPost2010PropOp46
 70
     1
102
RTVSPost2010Prop47
 90
       50
102
RTVSPost2010PropOp47
 70
     1
102
RTVSPost2010Prop48
 90
       50
102
RTVSPost2010PropOp48
 70
     1
102
RTVSPost2010Prop49
280
     0
102
RTVSPost2010PropOp49
 70
     1
102
RTVSPost2010Prop50
 90
       50
102
RTVSPost2010PropOp50
 70
     1
102
RTVSPost2010Prop51ColorIndex
 90
      256
102
RTVSPost2010Prop51ColorRGB
 90
-16777216
102
RTVSPost2010PropOp51
 70
     0
102
RTVSPost2010Prop52
140
1.0
102
RTVSPost2010PropOp52
 70
     0
102
RTVSPost2010Prop53
 90
        2
102
RTVSPost2010PropOp53
 70
     1
102
RTVSPost2010Prop54
  1
strokes_ogs.tif
102
RTVSPost2010PropOp54
 70
     1
102
RTVSPost2010Prop55
280
     0
102
RTVSPost2010PropOp55
 70
     1
102
RTVSPost2010Prop56
140
1.0
102
RTVSPost2010PropOp56
 70
     1
102
RTVSPost2010Prop57
140
1.0
102
RTVSPost2010PropOp57
 70
     1
102
RTVSPropertyOp0
 70
     1
102
RTVSPropertyOp1
 70
     1
102
RTVSPropertyOp2
 70
     1
102
RTVSPropertyOp3
 70
     1
102
RTVSPropertyOp4
 70
     1
102
RTVSPropertyOp5
 70
     1
102
RTVSPropertyOp6
 70
     1
102
RTVSPropertyOp7
 70
     1
102
RTVSPropertyOp8
 70
     1
102
RTVSPropertyOp9
 70
     1
102
RTVSPropertyOp10
 70
     1
102
RTVSPropertyOp11
 70
     1
102
RTVSPropertyOp12
 70
     1
102
RTVSPropertyOp13
 70
     1
102
RTVSPropertyOp14
 70
     1
102
RTVSPropertyOp15
 70
     1
102
RTVSPropertyOp16
 70
     1
102
RTVSPropertyOp17
 70
     1
102
RTVSPropertyOp18
 70
     1
102
RTVSPropertyOp19
 70
     1
102
RTVSPropertyOp20
 70
     1
102
RTVSPropertyOp21
 70
     1
102
RTVSPropertyOp22
 70
     1
102
RTVSPropertyOp23
 70
     1
102
RTVSPropertyOp24
 70
     1
102
RTVSPropertyOp25
 70
     1
102
RTVSPropertyOp26
 70
     1
102
RTVSPropertyOp27
 70
     1
102
RTVSPropertyOp28
 70
     1
102
RTVSPropertyOp29
 70
     1
102
RTVSPropertyOp30
 70
     1
102
RTVSPropertyOp31
 70
     1
102
RTVSPropertyOp32
 70
     1
102
RTVSPropertyOp33
 70
     1
102
RTVSPropertyOp34
 70
     1
102
RTVSPropertyOp35
 70
     1
102
RTVSPropertyOp36
 70
     1
102
RTVSPropertyOp37
 70
     1
102
RTVSPropertyOp38
 70
     1
102
RTVSPropertyOp39
 70
     1
102
RTVSPropertyOp40
 70
     1
102
RTVSPropertyOp41
 70
     1
102
RTVSPropertyOp42
 70
     1
102
RTVSPropertyOp43
 70
     1
102
RTVSPropertyOp44
 70
     1
102
RTVSPropertyOp45
 70
     1
102
RTVSPropertyOp46
 70
     1
102
RTVSPropertyOp47
 70
     1
102
RTVSPropertyOp48
 70
     1
102
RTVSPropertyOp49
 70
     1
102
RTVSPropertyOp50
 70
     1
102
RTVSPropertyOp51
 70
     0
102
RTVSPropertyOp52
 70
     0
102
RTVSPropertyOp53
 70
     1
102
RTVSPropertyOp54
 70
     1
102
RTVSPropertyOp55
 70
     1
102
RTVSPropertyOp56
 70
     1
102
RTVSPropertyOp57
 70
     1
102
RTVSPropertyOp58
 70
     1
102
RTVSPropertyOp59
 70
     1
102
RTVSPropertyOp60
 70
     1
102
RTVSPropertyOp61
 70
     1
102
RTVSPropertyOp62
 70
     1
  0
XRECORD
  5
53C9
102
{ACAD_REACTORS
330
53C8
102
}
330
53C8
100
AcDbXrecord
280
     1
102
RTVSPost2010Prop28
280
     0
102
RTVSPost2010PropOp28
 70
     1
102
RTVSPost2010Prop29
280
     1
102
RTVSPost2010PropOp29
 70
     1
102
RTVSPost2010Prop30
280
     1
102
RTVSPost2010PropOp30
 70
     1
102
RTVSPost2010Prop31
280
     0
102
RTVSPost2010PropOp31
 70
     1
102
RTVSPost2010Prop32
280
     0
102
RTVSPost2010PropOp32
 70
     1
102
RTVSPost2010Prop33
280
     0
102
RTVSPost2010PropOp33
 70
     1
102
RTVSPost2010Prop34
280
     0
102
RTVSPost2010PropOp34
 70
     1
102
RTVSPost2010Prop35
280
     0
102
RTVSPost2010PropOp35
 70
     1
102
RTVSPost2010Prop36
280
     0
102
RTVSPost2010PropOp36
 70
     1
102
RTVSPost2010Prop37
 90
       50
102
RTVSPost2010PropOp37
 70
     1
102
RTVSPost2010Prop38
140
0.0
102
RTVSPost2010PropOp38
 70
     1
102
RTVSPost2010Prop39
140
1.0
102
RTVSPost2010PropOp39
 70
     1
102
RTVSPost2010Prop40
 90
        0
102
RTVSPost2010PropOp40
 70
     1
102
RTVSPost2010Prop41ColorIndex
 90
       18
102
RTVSPost2010Prop41ColorRGB
 90
        0
102
RTVSPost2010PropOp41
 70
     1
102
RTVSPost2010Prop42
 90
       50
102
RTVSPost2010PropOp42
 70
     1
102
RTVSPost2010Prop43
 90
        3
102
RTVSPost2010PropOp43
 70
     1
102
RTVSPost2010Prop44ColorIndex
 90
        5
102
RTVSPost2010Prop44ColorRGB
 90
      255
102
RTVSPost2010PropOp44
 70
     1
102
RTVSPost2010Prop45
280
     0
102
RTVSPost2010PropOp45
 70
     1
102
RTVSPost2010Prop46
 90
       50
102
RTVSPost2010PropOp46
 70
     1
102
RTVSPost2010Prop47
 90
       50
102
RTVSPost2010PropOp47
 70
     1
102
RTVSPost2010Prop48
 90
       50
102
RTVSPost2010PropOp48
 70
     1
102
RTVSPost2010Prop49
280
     0
102
RTVSPost2010PropOp49
 70
     1
102
RTVSPost2010Prop50
 90
       50
102
RTVSPost2010PropOp50
 70
     1
102
RTVSPost2010Prop51ColorIndex
 90
      256
102
RTVSPost2010Prop51ColorRGB
 90
-16777216
102
RTVSPost2010PropOp51
 70
     0
102
RTVSPost2010Prop52
140
1.0
102
RTVSPost2010PropOp52
 70
     0
102
RTVSPost2010Prop53
 90
        2
102
RTVSPost2010PropOp53
 70
     1
102
RTVSPost2010Prop54
  1
strokes_ogs.tif
102
RTVSPost2010PropOp54
 70
     1
102
RTVSPost2010Prop55
280
     0
102
RTVSPost2010PropOp55
 70
     1
102
RTVSPost2010Prop56
140
1.0
102
RTVSPost2010PropOp56
 70
     1
102
RTVSPost2010Prop57
140
1.0
102
RTVSPost2010PropOp57
 70
     1
102
RTVSPropertyOp0
 70
     1
102
RTVSPropertyOp1
 70
     1
102
RTVSPropertyOp2
 70
     1
102
RTVSPropertyOp3
 70
     1
102
RTVSPropertyOp4
 70
     1
102
RTVSPropertyOp5
 70
     1
102
RTVSPropertyOp6
 70
     1
102
RTVSPropertyOp7
 70
     1
102
RTVSPropertyOp8
 70
     1
102
RTVSPropertyOp9
 70
     1
102
RTVSPropertyOp10
 70
     1
102
RTVSPropertyOp11
 70
     1
102
RTVSPropertyOp12
 70
     1
102
RTVSPropertyOp13
 70
     1
102
RTVSPropertyOp14
 70
     1
102
RTVSPropertyOp15
 70
     1
102
RTVSPropertyOp16
 70
     1
102
RTVSPropertyOp17
 70
     1
102
RTVSPropertyOp18
 70
     1
102
RTVSPropertyOp19
 70
     1
102
RTVSPropertyOp20
 70
     1
102
RTVSPropertyOp21
 70
     1
102
RTVSPropertyOp22
 70
     1
102
RTVSPropertyOp23
 70
     1
102
RTVSPropertyOp24
 70
     1
102
RTVSPropertyOp25
 70
     1
102
RTVSPropertyOp26
 70
     1
102
RTVSPropertyOp27
 70
     1
102
RTVSPropertyOp28
 70
     1
102
RTVSPropertyOp29
 70
     1
102
RTVSPropertyOp30
 70
     1
102
RTVSPropertyOp31
 70
     1
102
RTVSPropertyOp32
 70
     1
102
RTVSPropertyOp33
 70
     1
102
RTVSPropertyOp34
 70
     1
102
RTVSPropertyOp35
 70
     1
102
RTVSPropertyOp36
 70
     1
102
RTVSPropertyOp37
 70
     1
102
RTVSPropertyOp38
 70
     1
102
RTVSPropertyOp39
 70
     1
102
RTVSPropertyOp40
 70
     1
102
RTVSPropertyOp41
 70
     1
102
RTVSPropertyOp42
 70
     1
102
RTVSPropertyOp43
 70
     1
102
RTVSPropertyOp44
 70
     1
102
RTVSPropertyOp45
 70
     1
102
RTVSPropertyOp46
 70
     1
102
RTVSPropertyOp47
 70
     1
102
RTVSPropertyOp48
 70
     1
102
RTVSPropertyOp49
 70
     1
102
RTVSPropertyOp50
 70
     1
102
RTVSPropertyOp51
 70
     0
102
RTVSPropertyOp52
 70
     0
102
RTVSPropertyOp53
 70
     1
102
RTVSPropertyOp54
 70
     1
102
RTVSPropertyOp55
 70
     1
102
RTVSPropertyOp56
 70
     1
102
RTVSPropertyOp57
 70
     1
102
RTVSPropertyOp58
 70
     1
102
RTVSPropertyOp59
 70
     1
102
RTVSPropertyOp60
 70
     1
102
RTVSPropertyOp61
 70
     1
102
RTVSPropertyOp62
 70
     1
  0
XRECORD
  5
53D1
102
{ACAD_REACTORS
330
53D0
102
}
330
53D0
100
AcDbXrecord
280
     1
102
RTVSPost2010Prop28
280
     0
102
RTVSPost2010PropOp28
 70
     1
102
RTVSPost2010Prop29
280
     1
102
RTVSPost2010PropOp29
 70
     1
102
RTVSPost2010Prop30
280
     1
102
RTVSPost2010PropOp30
 70
     1
102
RTVSPost2010Prop31
280
     0
102
RTVSPost2010PropOp31
 70
     1
102
RTVSPost2010Prop32
280
     0
102
RTVSPost2010PropOp32
 70
     1
102
RTVSPost2010Prop33
280
     0
102
RTVSPost2010PropOp33
 70
     1
102
RTVSPost2010Prop34
280
     0
102
RTVSPost2010PropOp34
 70
     1
102
RTVSPost2010Prop35
280
     0
102
RTVSPost2010PropOp35
 70
     1
102
RTVSPost2010Prop36
280
     0
102
RTVSPost2010PropOp36
 70
     1
102
RTVSPost2010Prop37
 90
       50
102
RTVSPost2010PropOp37
 70
     1
102
RTVSPost2010Prop38
140
0.0
102
RTVSPost2010PropOp38
 70
     1
102
RTVSPost2010Prop39
140
1.0
102
RTVSPost2010PropOp39
 70
     1
102
RTVSPost2010Prop40
 90
        0
102
RTVSPost2010PropOp40
 70
     1
102
RTVSPost2010Prop41ColorIndex
 90
       18
102
RTVSPost2010Prop41ColorRGB
 90
        0
102
RTVSPost2010PropOp41
 70
     1
102
RTVSPost2010Prop42
 90
       50
102
RTVSPost2010PropOp42
 70
     1
102
RTVSPost2010Prop43
 90
        3
102
RTVSPost2010PropOp43
 70
     1
102
RTVSPost2010Prop44ColorIndex
 90
        5
102
RTVSPost2010Prop44ColorRGB
 90
      255
102
RTVSPost2010PropOp44
 70
     1
102
RTVSPost2010Prop45
280
     0
102
RTVSPost2010PropOp45
 70
     1
102
RTVSPost2010Prop46
 90
       50
102
RTVSPost2010PropOp46
 70
     1
102
RTVSPost2010Prop47
 90
       50
102
RTVSPost2010PropOp47
 70
     1
102
RTVSPost2010Prop48
 90
       50
102
RTVSPost2010PropOp48
 70
     1
102
RTVSPost2010Prop49
280
     0
102
RTVSPost2010PropOp49
 70
     1
102
RTVSPost2010Prop50
 90
       50
102
RTVSPost2010PropOp50
 70
     1
102
RTVSPost2010Prop51ColorIndex
 90
      256
102
RTVSPost2010Prop51ColorRGB
 90
-16777216
102
RTVSPost2010PropOp51
 70
     0
102
RTVSPost2010Prop52
140
1.0
102
RTVSPost2010PropOp52
 70
     0
102
RTVSPost2010Prop53
 90
        2
102
RTVSPost2010PropOp53
 70
     1
102
RTVSPost2010Prop54
  1
strokes_ogs.tif
102
RTVSPost2010PropOp54
 70
     1
102
RTVSPost2010Prop55
280
     0
102
RTVSPost2010PropOp55
 70
     1
102
RTVSPost2010Prop56
140
1.0
102
RTVSPost2010PropOp56
 70
     1
102
RTVSPost2010Prop57
140
1.0
102
RTVSPost2010PropOp57
 70
     1
102
RTVSPropertyOp0
 70
     1
102
RTVSPropertyOp1
 70
     1
102
RTVSPropertyOp2
 70
     1
102
RTVSPropertyOp3
 70
     1
102
RTVSPropertyOp4
 70
     1
102
RTVSPropertyOp5
 70
     1
102
RTVSPropertyOp6
 70
     1
102
RTVSPropertyOp7
 70
     1
102
RTVSPropertyOp8
 70
     1
102
RTVSPropertyOp9
 70
     1
102
RTVSPropertyOp10
 70
     1
102
RTVSPropertyOp11
 70
     1
102
RTVSPropertyOp12
 70
     1
102
RTVSPropertyOp13
 70
     1
102
RTVSPropertyOp14
 70
     1
102
RTVSPropertyOp15
 70
     1
102
RTVSPropertyOp16
 70
     1
102
RTVSPropertyOp17
 70
     1
102
RTVSPropertyOp18
 70
     1
102
RTVSPropertyOp19
 70
     1
102
RTVSPropertyOp20
 70
     1
102
RTVSPropertyOp21
 70
     1
102
RTVSPropertyOp22
 70
     1
102
RTVSPropertyOp23
 70
     1
102
RTVSPropertyOp24
 70
     1
102
RTVSPropertyOp25
 70
     1
102
RTVSPropertyOp26
 70
     1
102
RTVSPropertyOp27
 70
     1
102
RTVSPropertyOp28
 70
     1
102
RTVSPropertyOp29
 70
     1
102
RTVSPropertyOp30
 70
     1
102
RTVSPropertyOp31
 70
     1
102
RTVSPropertyOp32
 70
     1
102
RTVSPropertyOp33
 70
     1
102
RTVSPropertyOp34
 70
     1
102
RTVSPropertyOp35
 70
     1
102
RTVSPropertyOp36
 70
     1
102
RTVSPropertyOp37
 70
     1
102
RTVSPropertyOp38
 70
     1
102
RTVSPropertyOp39
 70
     1
102
RTVSPropertyOp40
 70
     1
102
RTVSPropertyOp41
 70
     1
102
RTVSPropertyOp42
 70
     1
102
RTVSPropertyOp43
 70
     1
102
RTVSPropertyOp44
 70
     1
102
RTVSPropertyOp45
 70
     1
102
RTVSPropertyOp46
 70
     1
102
RTVSPropertyOp47
 70
     1
102
RTVSPropertyOp48
 70
     1
102
RTVSPropertyOp49
 70
     1
102
RTVSPropertyOp50
 70
     1
102
RTVSPropertyOp51
 70
     0
102
RTVSPropertyOp52
 70
     0
102
RTVSPropertyOp53
 70
     1
102
RTVSPropertyOp54
 70
     1
102
RTVSPropertyOp55
 70
     1
102
RTVSPropertyOp56
 70
     1
102
RTVSPropertyOp57
 70
     1
102
RTVSPropertyOp58
 70
     1
102
RTVSPropertyOp59
 70
     1
102
RTVSPropertyOp60
 70
     1
102
RTVSPropertyOp61
 70
     1
102
RTVSPropertyOp62
 70
     1
  0
XRECORD
  5
53C3
102
{ACAD_REACTORS
330
53C2
102
}
330
53C2
100
AcDbXrecord
280
     1
102
RTVSPost2010Prop28
280
     0
102
RTVSPost2010PropOp28
 70
     1
102
RTVSPost2010Prop29
280
     1
102
RTVSPost2010PropOp29
 70
     1
102
RTVSPost2010Prop30
280
     1
102
RTVSPost2010PropOp30
 70
     1
102
RTVSPost2010Prop31
280
     0
102
RTVSPost2010PropOp31
 70
     1
102
RTVSPost2010Prop32
280
     0
102
RTVSPost2010PropOp32
 70
     1
102
RTVSPost2010Prop33
280
     0
102
RTVSPost2010PropOp33
 70
     1
102
RTVSPost2010Prop34
280
     0
102
RTVSPost2010PropOp34
 70
     1
102
RTVSPost2010Prop35
280
     0
102
RTVSPost2010PropOp35
 70
     1
102
RTVSPost2010Prop36
280
     0
102
RTVSPost2010PropOp36
 70
     1
102
RTVSPost2010Prop37
 90
       50
102
RTVSPost2010PropOp37
 70
     1
102
RTVSPost2010Prop38
140
0.0
102
RTVSPost2010PropOp38
 70
     1
102
RTVSPost2010Prop39
140
1.0
102
RTVSPost2010PropOp39
 70
     1
102
RTVSPost2010Prop40
 90
        0
102
RTVSPost2010PropOp40
 70
     1
102
RTVSPost2010Prop41ColorIndex
 90
       18
102
RTVSPost2010Prop41ColorRGB
 90
        0
102
RTVSPost2010PropOp41
 70
     1
102
RTVSPost2010Prop42
 90
       50
102
RTVSPost2010PropOp42
 70
     1
102
RTVSPost2010Prop43
 90
        3
102
RTVSPost2010PropOp43
 70
     1
102
RTVSPost2010Prop44ColorIndex
 90
        5
102
RTVSPost2010Prop44ColorRGB
 90
      255
102
RTVSPost2010PropOp44
 70
     1
102
RTVSPost2010Prop45
280
     0
102
RTVSPost2010PropOp45
 70
     1
102
RTVSPost2010Prop46
 90
       50
102
RTVSPost2010PropOp46
 70
     1
102
RTVSPost2010Prop47
 90
       50
102
RTVSPost2010PropOp47
 70
     1
102
RTVSPost2010Prop48
 90
       50
102
RTVSPost2010PropOp48
 70
     1
102
RTVSPost2010Prop49
280
     0
102
RTVSPost2010PropOp49
 70
     1
102
RTVSPost2010Prop50
 90
       50
102
RTVSPost2010PropOp50
 70
     1
102
RTVSPost2010Prop51ColorIndex
 90
      256
102
RTVSPost2010Prop51ColorRGB
 90
-16777216
102
RTVSPost2010PropOp51
 70
     0
102
RTVSPost2010Prop52
140
1.0
102
RTVSPost2010PropOp52
 70
     0
102
RTVSPost2010Prop53
 90
        2
102
RTVSPost2010PropOp53
 70
     1
102
RTVSPost2010Prop54
  1
strokes_ogs.tif
102
RTVSPost2010PropOp54
 70
     1
102
RTVSPost2010Prop55
280
     0
102
RTVSPost2010PropOp55
 70
     1
102
RTVSPost2010Prop56
140
1.0
102
RTVSPost2010PropOp56
 70
     1
102
RTVSPost2010Prop57
140
1.0
102
RTVSPost2010PropOp57
 70
     1
102
RTVSPropertyOp0
 70
     1
102
RTVSPropertyOp1
 70
     1
102
RTVSPropertyOp2
 70
     1
102
RTVSPropertyOp3
 70
     1
102
RTVSPropertyOp4
 70
     1
102
RTVSPropertyOp5
 70
     1
102
RTVSPropertyOp6
 70
     1
102
RTVSPropertyOp7
 70
     1
102
RTVSPropertyOp8
 70
     1
102
RTVSPropertyOp9
 70
     1
102
RTVSPropertyOp10
 70
     1
102
RTVSPropertyOp11
 70
     1
102
RTVSPropertyOp12
 70
     1
102
RTVSPropertyOp13
 70
     1
102
RTVSPropertyOp14
 70
     1
102
RTVSPropertyOp15
 70
     1
102
RTVSPropertyOp16
 70
     1
102
RTVSPropertyOp17
 70
     1
102
RTVSPropertyOp18
 70
     1
102
RTVSPropertyOp19
 70
     1
102
RTVSPropertyOp20
 70
     1
102
RTVSPropertyOp21
 70
     1
102
RTVSPropertyOp22
 70
     1
102
RTVSPropertyOp23
 70
     1
102
RTVSPropertyOp24
 70
     1
102
RTVSPropertyOp25
 70
     1
102
RTVSPropertyOp26
 70
     1
102
RTVSPropertyOp27
 70
     1
102
RTVSPropertyOp28
 70
     1
102
RTVSPropertyOp29
 70
     1
102
RTVSPropertyOp30
 70
     1
102
RTVSPropertyOp31
 70
     1
102
RTVSPropertyOp32
 70
     1
102
RTVSPropertyOp33
 70
     1
102
RTVSPropertyOp34
 70
     1
102
RTVSPropertyOp35
 70
     1
102
RTVSPropertyOp36
 70
     1
102
RTVSPropertyOp37
 70
     1
102
RTVSPropertyOp38
 70
     1
102
RTVSPropertyOp39
 70
     1
102
RTVSPropertyOp40
 70
     1
102
RTVSPropertyOp41
 70
     1
102
RTVSPropertyOp42
 70
     1
102
RTVSPropertyOp43
 70
     1
102
RTVSPropertyOp44
 70
     1
102
RTVSPropertyOp45
 70
     1
102
RTVSPropertyOp46
 70
     1
102
RTVSPropertyOp47
 70
     1
102
RTVSPropertyOp48
 70
     1
102
RTVSPropertyOp49
 70
     1
102
RTVSPropertyOp50
 70
     1
102
RTVSPropertyOp51
 70
     0
102
RTVSPropertyOp52
 70
     0
102
RTVSPropertyOp53
 70
     1
102
RTVSPropertyOp54
 70
     1
102
RTVSPropertyOp55
 70
     1
102
RTVSPropertyOp56
 70
     1
102
RTVSPropertyOp57
 70
     1
102
RTVSPropertyOp58
 70
     1
102
RTVSPropertyOp59
 70
     1
102
RTVSPropertyOp60
 70
     1
102
RTVSPropertyOp61
 70
     1
102
RTVSPropertyOp62
 70
     1
  0
XRECORD
  5
53C7
102
{ACAD_REACTORS
330
53C6
102
}
330
53C6
100
AcDbXrecord
280
     1
102
RTVSPost2010Prop28
280
     0
102
RTVSPost2010PropOp28
 70
     1
102
RTVSPost2010Prop29
280
     1
102
RTVSPost2010PropOp29
 70
     1
102
RTVSPost2010Prop30
280
     1
102
RTVSPost2010PropOp30
 70
     1
102
RTVSPost2010Prop31
280
     0
102
RTVSPost2010PropOp31
 70
     1
102
RTVSPost2010Prop32
280
     0
102
RTVSPost2010PropOp32
 70
     1
102
RTVSPost2010Prop33
280
     0
102
RTVSPost2010PropOp33
 70
     1
102
RTVSPost2010Prop34
280
     0
102
RTVSPost2010PropOp34
 70
     1
102
RTVSPost2010Prop35
280
     0
102
RTVSPost2010PropOp35
 70
     1
102
RTVSPost2010Prop36
280
     0
102
RTVSPost2010PropOp36
 70
     1
102
RTVSPost2010Prop37
 90
       50
102
RTVSPost2010PropOp37
 70
     1
102
RTVSPost2010Prop38
140
0.0
102
RTVSPost2010PropOp38
 70
     1
102
RTVSPost2010Prop39
140
1.0
102
RTVSPost2010PropOp39
 70
     1
102
RTVSPost2010Prop40
 90
        0
102
RTVSPost2010PropOp40
 70
     1
102
RTVSPost2010Prop41ColorIndex
 90
       18
102
RTVSPost2010Prop41ColorRGB
 90
        0
102
RTVSPost2010PropOp41
 70
     1
102
RTVSPost2010Prop42
 90
       50
102
RTVSPost2010PropOp42
 70
     1
102
RTVSPost2010Prop43
 90
        3
102
RTVSPost2010PropOp43
 70
     1
102
RTVSPost2010Prop44ColorIndex
 90
        5
102
RTVSPost2010Prop44ColorRGB
 90
      255
102
RTVSPost2010PropOp44
 70
     1
102
RTVSPost2010Prop45
280
     0
102
RTVSPost2010PropOp45
 70
     1
102
RTVSPost2010Prop46
 90
       50
102
RTVSPost2010PropOp46
 70
     1
102
RTVSPost2010Prop47
 90
       50
102
RTVSPost2010PropOp47
 70
     1
102
RTVSPost2010Prop48
 90
       50
102
RTVSPost2010PropOp48
 70
     1
102
RTVSPost2010Prop49
280
     0
102
RTVSPost2010PropOp49
 70
     1
102
RTVSPost2010Prop50
 90
       50
102
RTVSPost2010PropOp50
 70
     1
102
RTVSPost2010Prop51ColorIndex
 90
      256
102
RTVSPost2010Prop51ColorRGB
 90
-16777216
102
RTVSPost2010PropOp51
 70
     0
102
RTVSPost2010Prop52
140
1.0
102
RTVSPost2010PropOp52
 70
     0
102
RTVSPost2010Prop53
 90
        2
102
RTVSPost2010PropOp53
 70
     1
102
RTVSPost2010Prop54
  1
strokes_ogs.tif
102
RTVSPost2010PropOp54
 70
     1
102
RTVSPost2010Prop55
280
     0
102
RTVSPost2010PropOp55
 70
     1
102
RTVSPost2010Prop56
140
1.0
102
RTVSPost2010PropOp56
 70
     1
102
RTVSPost2010Prop57
140
1.0
102
RTVSPost2010PropOp57
 70
     1
102
RTVSPropertyOp0
 70
     1
102
RTVSPropertyOp1
 70
     1
102
RTVSPropertyOp2
 70
     1
102
RTVSPropertyOp3
 70
     1
102
RTVSPropertyOp4
 70
     1
102
RTVSPropertyOp5
 70
     1
102
RTVSPropertyOp6
 70
     1
102
RTVSPropertyOp7
 70
     1
102
RTVSPropertyOp8
 70
     1
102
RTVSPropertyOp9
 70
     1
102
RTVSPropertyOp10
 70
     1
102
RTVSPropertyOp11
 70
     1
102
RTVSPropertyOp12
 70
     1
102
RTVSPropertyOp13
 70
     1
102
RTVSPropertyOp14
 70
     1
102
RTVSPropertyOp15
 70
     1
102
RTVSPropertyOp16
 70
     1
102
RTVSPropertyOp17
 70
     1
102
RTVSPropertyOp18
 70
     1
102
RTVSPropertyOp19
 70
     1
102
RTVSPropertyOp20
 70
     1
102
RTVSPropertyOp21
 70
     1
102
RTVSPropertyOp22
 70
     1
102
RTVSPropertyOp23
 70
     1
102
RTVSPropertyOp24
 70
     1
102
RTVSPropertyOp25
 70
     1
102
RTVSPropertyOp26
 70
     1
102
RTVSPropertyOp27
 70
     1
102
RTVSPropertyOp28
 70
     1
102
RTVSPropertyOp29
 70
     1
102
RTVSPropertyOp30
 70
     1
102
RTVSPropertyOp31
 70
     1
102
RTVSPropertyOp32
 70
     1
102
RTVSPropertyOp33
 70
     1
102
RTVSPropertyOp34
 70
     1
102
RTVSPropertyOp35
 70
     1
102
RTVSPropertyOp36
 70
     1
102
RTVSPropertyOp37
 70
     1
102
RTVSPropertyOp38
 70
     1
102
RTVSPropertyOp39
 70
     1
102
RTVSPropertyOp40
 70
     1
102
RTVSPropertyOp41
 70
     1
102
RTVSPropertyOp42
 70
     1
102
RTVSPropertyOp43
 70
     1
102
RTVSPropertyOp44
 70
     1
102
RTVSPropertyOp45
 70
     1
102
RTVSPropertyOp46
 70
     1
102
RTVSPropertyOp47
 70
     1
102
RTVSPropertyOp48
 70
     1
102
RTVSPropertyOp49
 70
     1
102
RTVSPropertyOp50
 70
     1
102
RTVSPropertyOp51
 70
     0
102
RTVSPropertyOp52
 70
     0
102
RTVSPropertyOp53
 70
     1
102
RTVSPropertyOp54
 70
     1
102
RTVSPropertyOp55
 70
     1
102
RTVSPropertyOp56
 70
     1
102
RTVSPropertyOp57
 70
     1
102
RTVSPropertyOp58
 70
     1
102
RTVSPropertyOp59
 70
     1
102
RTVSPropertyOp60
 70
     1
102
RTVSPropertyOp61
 70
     1
102
RTVSPropertyOp62
 70
     1
  0
XRECORD
  5
53D9
102
{ACAD_REACTORS
330
53D8
102
}
330
53D8
100
AcDbXrecord
280
     1
102
RTVSPost2010Prop28
280
     0
102
RTVSPost2010PropOp28
 70
     1
102
RTVSPost2010Prop29
280
     1
102
RTVSPost2010PropOp29
 70
     1
102
RTVSPost2010Prop30
280
     1
102
RTVSPost2010PropOp30
 70
     1
102
RTVSPost2010Prop31
280
     0
102
RTVSPost2010PropOp31
 70
     1
102
RTVSPost2010Prop32
280
     0
102
RTVSPost2010PropOp32
 70
     1
102
RTVSPost2010Prop33
280
     0
102
RTVSPost2010PropOp33
 70
     1
102
RTVSPost2010Prop34
280
     0
102
RTVSPost2010PropOp34
 70
     1
102
RTVSPost2010Prop35
280
     0
102
RTVSPost2010PropOp35
 70
     1
102
RTVSPost2010Prop36
280
     0
102
RTVSPost2010PropOp36
 70
     1
102
RTVSPost2010Prop37
 90
       50
102
RTVSPost2010PropOp37
 70
     1
102
RTVSPost2010Prop38
140
0.0
102
RTVSPost2010PropOp38
 70
     1
102
RTVSPost2010Prop39
140
1.0
102
RTVSPost2010PropOp39
 70
     1
102
RTVSPost2010Prop40
 90
        0
102
RTVSPost2010PropOp40
 70
     1
102
RTVSPost2010Prop41ColorIndex
 90
       18
102
RTVSPost2010Prop41ColorRGB
 90
        0
102
RTVSPost2010PropOp41
 70
     1
102
RTVSPost2010Prop42
 90
       50
102
RTVSPost2010PropOp42
 70
     1
102
RTVSPost2010Prop43
 90
        3
102
RTVSPost2010PropOp43
 70
     1
102
RTVSPost2010Prop44ColorIndex
 90
        5
102
RTVSPost2010Prop44ColorRGB
 90
      255
102
RTVSPost2010PropOp44
 70
     1
102
RTVSPost2010Prop45
280
     0
102
RTVSPost2010PropOp45
 70
     1
102
RTVSPost2010Prop46
 90
       50
102
RTVSPost2010PropOp46
 70
     1
102
RTVSPost2010Prop47
 90
       50
102
RTVSPost2010PropOp47
 70
     1
102
RTVSPost2010Prop48
 90
       50
102
RTVSPost2010PropOp48
 70
     1
102
RTVSPost2010Prop49
280
     0
102
RTVSPost2010PropOp49
 70
     1
102
RTVSPost2010Prop50
 90
       50
102
RTVSPost2010PropOp50
 70
     1
102
RTVSPost2010Prop51ColorIndex
 90
      256
102
RTVSPost2010Prop51ColorRGB
 90
-16777216
102
RTVSPost2010PropOp51
 70
     0
102
RTVSPost2010Prop52
140
1.0
102
RTVSPost2010PropOp52
 70
     0
102
RTVSPost2010Prop53
 90
        2
102
RTVSPost2010PropOp53
 70
     1
102
RTVSPost2010Prop54
  1
strokes_ogs.tif
102
RTVSPost2010PropOp54
 70
     1
102
RTVSPost2010Prop55
280
     0
102
RTVSPost2010PropOp55
 70
     1
102
RTVSPost2010Prop56
140
1.0
102
RTVSPost2010PropOp56
 70
     1
102
RTVSPost2010Prop57
140
1.0
102
RTVSPost2010PropOp57
 70
     1
102
RTVSPropertyOp0
 70
     0
102
RTVSPropertyOp1
 70
     0
102
RTVSPropertyOp2
 70
     0
102
RTVSPropertyOp3
 70
     0
102
RTVSPropertyOp4
 70
     0
102
RTVSPropertyOp5
 70
     0
102
RTVSPropertyOp6
 70
     0
102
RTVSPropertyOp7
 70
     0
102
RTVSPropertyOp8
 70
     0
102
RTVSPropertyOp9
 70
     0
102
RTVSPropertyOp10
 70
     0
102
RTVSPropertyOp11
 70
     0
102
RTVSPropertyOp12
 70
     0
102
RTVSPropertyOp13
 70
     0
102
RTVSPropertyOp14
 70
     2
102
RTVSPropertyOp15
 70
     0
102
RTVSPropertyOp16
 70
     0
102
RTVSPropertyOp17
 70
     0
102
RTVSPropertyOp18
 70
     0
102
RTVSPropertyOp19
 70
     0
102
RTVSPropertyOp20
 70
     0
102
RTVSPropertyOp21
 70
     0
102
RTVSPropertyOp22
 70
     0
102
RTVSPropertyOp23
 70
     0
102
RTVSPropertyOp24
 70
     0
102
RTVSPropertyOp25
 70
     0
102
RTVSPropertyOp26
 70
     0
102
RTVSPropertyOp27
 70
     0
102
RTVSPropertyOp28
 70
     1
102
RTVSPropertyOp29
 70
     1
102
RTVSPropertyOp30
 70
     1
102
RTVSPropertyOp31
 70
     1
102
RTVSPropertyOp32
 70
     1
102
RTVSPropertyOp33
 70
     1
102
RTVSPropertyOp34
 70
     1
102
RTVSPropertyOp35
 70
     1
102
RTVSPropertyOp36
 70
     1
102
RTVSPropertyOp37
 70
     1
102
RTVSPropertyOp38
 70
     1
102
RTVSPropertyOp39
 70
     1
102
RTVSPropertyOp40
 70
     1
102
RTVSPropertyOp41
 70
     1
102
RTVSPropertyOp42
 70
     1
102
RTVSPropertyOp43
 70
     1
102
RTVSPropertyOp44
 70
     1
102
RTVSPropertyOp45
 70
     1
102
RTVSPropertyOp46
 70
     1
102
RTVSPropertyOp47
 70
     1
102
RTVSPropertyOp48
 70
     1
102
RTVSPropertyOp49
 70
     1
102
RTVSPropertyOp50
 70
     1
102
RTVSPropertyOp51
 70
     0
102
RTVSPropertyOp52
 70
     0
102
RTVSPropertyOp53
 70
     1
102
RTVSPropertyOp54
 70
     1
102
RTVSPropertyOp55
 70
     1
102
RTVSPropertyOp56
 70
     1
102
RTVSPropertyOp57
 70
     1
102
RTVSPropertyOp58
 70
     1
102
RTVSPropertyOp59
 70
     1
102
RTVSPropertyOp60
 70
     1
102
RTVSPropertyOp61
 70
     1
102
RTVSPropertyOp62
 70
     1
  0
XRECORD
  5
53CF
102
{ACAD_REACTORS
330
53CE
102
}
330
53CE
100
AcDbXrecord
280
     1
102
RTVSPost2010Prop28
280
     0
102
RTVSPost2010PropOp28
 70
     1
102
RTVSPost2010Prop29
280
     1
102
RTVSPost2010PropOp29
 70
     1
102
RTVSPost2010Prop30
280
     1
102
RTVSPost2010PropOp30
 70
     1
102
RTVSPost2010Prop31
280
     0
102
RTVSPost2010PropOp31
 70
     1
102
RTVSPost2010Prop32
280
     0
102
RTVSPost2010PropOp32
 70
     1
102
RTVSPost2010Prop33
280
     0
102
RTVSPost2010PropOp33
 70
     1
102
RTVSPost2010Prop34
280
     0
102
RTVSPost2010PropOp34
 70
     1
102
RTVSPost2010Prop35
280
     0
102
RTVSPost2010PropOp35
 70
     1
102
RTVSPost2010Prop36
280
     0
102
RTVSPost2010PropOp36
 70
     1
102
RTVSPost2010Prop37
 90
       50
102
RTVSPost2010PropOp37
 70
     1
102
RTVSPost2010Prop38
140
0.0
102
RTVSPost2010PropOp38
 70
     1
102
RTVSPost2010Prop39
140
1.0
102
RTVSPost2010PropOp39
 70
     1
102
RTVSPost2010Prop40
 90
        0
102
RTVSPost2010PropOp40
 70
     1
102
RTVSPost2010Prop41ColorIndex
 90
       18
102
RTVSPost2010Prop41ColorRGB
 90
        0
102
RTVSPost2010PropOp41
 70
     1
102
RTVSPost2010Prop42
 90
       50
102
RTVSPost2010PropOp42
 70
     1
102
RTVSPost2010Prop43
 90
        3
102
RTVSPost2010PropOp43
 70
     1
102
RTVSPost2010Prop44ColorIndex
 90
        5
102
RTVSPost2010Prop44ColorRGB
 90
      255
102
RTVSPost2010PropOp44
 70
     1
102
RTVSPost2010Prop45
280
     0
102
RTVSPost2010PropOp45
 70
     1
102
RTVSPost2010Prop46
 90
       50
102
RTVSPost2010PropOp46
 70
     1
102
RTVSPost2010Prop47
 90
       50
102
RTVSPost2010PropOp47
 70
     1
102
RTVSPost2010Prop48
 90
       50
102
RTVSPost2010PropOp48
 70
     1
102
RTVSPost2010Prop49
280
     0
102
RTVSPost2010PropOp49
 70
     1
102
RTVSPost2010Prop50
 90
       50
102
RTVSPost2010PropOp50
 70
     1
102
RTVSPost2010Prop51ColorIndex
 90
      256
102
RTVSPost2010Prop51ColorRGB
 90
-16777216
102
RTVSPost2010PropOp51
 70
     0
102
RTVSPost2010Prop52
140
1.0
102
RTVSPost2010PropOp52
 70
     0
102
RTVSPost2010Prop53
 90
        2
102
RTVSPost2010PropOp53
 70
     1
102
RTVSPost2010Prop54
  1
strokes_ogs.tif
102
RTVSPost2010PropOp54
 70
     1
102
RTVSPost2010Prop55
280
     0
102
RTVSPost2010PropOp55
 70
     1
102
RTVSPost2010Prop56
140
1.0
102
RTVSPost2010PropOp56
 70
     1
102
RTVSPost2010Prop57
140
1.0
102
RTVSPost2010PropOp57
 70
     1
102
RTVSPropertyOp0
 70
     1
102
RTVSPropertyOp1
 70
     1
102
RTVSPropertyOp2
 70
     1
102
RTVSPropertyOp3
 70
     1
102
RTVSPropertyOp4
 70
     1
102
RTVSPropertyOp5
 70
     1
102
RTVSPropertyOp6
 70
     1
102
RTVSPropertyOp7
 70
     1
102
RTVSPropertyOp8
 70
     1
102
RTVSPropertyOp9
 70
     1
102
RTVSPropertyOp10
 70
     1
102
RTVSPropertyOp11
 70
     1
102
RTVSPropertyOp12
 70
     1
102
RTVSPropertyOp13
 70
     1
102
RTVSPropertyOp14
 70
     1
102
RTVSPropertyOp15
 70
     1
102
RTVSPropertyOp16
 70
     1
102
RTVSPropertyOp17
 70
     1
102
RTVSPropertyOp18
 70
     1
102
RTVSPropertyOp19
 70
     1
102
RTVSPropertyOp20
 70
     1
102
RTVSPropertyOp21
 70
     1
102
RTVSPropertyOp22
 70
     1
102
RTVSPropertyOp23
 70
     1
102
RTVSPropertyOp24
 70
     1
102
RTVSPropertyOp25
 70
     1
102
RTVSPropertyOp26
 70
     1
102
RTVSPropertyOp27
 70
     1
102
RTVSPropertyOp28
 70
     1
102
RTVSPropertyOp29
 70
     1
102
RTVSPropertyOp30
 70
     1
102
RTVSPropertyOp31
 70
     1
102
RTVSPropertyOp32
 70
     1
102
RTVSPropertyOp33
 70
     1
102
RTVSPropertyOp34
 70
     1
102
RTVSPropertyOp35
 70
     1
102
RTVSPropertyOp36
 70
     1
102
RTVSPropertyOp37
 70
     1
102
RTVSPropertyOp38
 70
     1
102
RTVSPropertyOp39
 70
     1
102
RTVSPropertyOp40
 70
     1
102
RTVSPropertyOp41
 70
     1
102
RTVSPropertyOp42
 70
     1
102
RTVSPropertyOp43
 70
     1
102
RTVSPropertyOp44
 70
     1
102
RTVSPropertyOp45
 70
     1
102
RTVSPropertyOp46
 70
     1
102
RTVSPropertyOp47
 70
     1
102
RTVSPropertyOp48
 70
     1
102
RTVSPropertyOp49
 70
     1
102
RTVSPropertyOp50
 70
     1
102
RTVSPropertyOp51
 70
     0
102
RTVSPropertyOp52
 70
     0
102
RTVSPropertyOp53
 70
     1
102
RTVSPropertyOp54
 70
     1
102
RTVSPropertyOp55
 70
     1
102
RTVSPropertyOp56
 70
     1
102
RTVSPropertyOp57
 70
     1
102
RTVSPropertyOp58
 70
     1
102
RTVSPropertyOp59
 70
     1
102
RTVSPropertyOp60
 70
     1
102
RTVSPropertyOp61
 70
     1
102
RTVSPropertyOp62
 70
     1
  0
XRECORD
  5
53B3
102
{ACAD_REACTORS
330
53B2
102
}
330
53B2
100
AcDbXrecord
280
     1
102
RTVSPost2010Prop28
280
     0
102
RTVSPost2010PropOp28
 70
     1
102
RTVSPost2010Prop29
280
     1
102
RTVSPost2010PropOp29
 70
     1
102
RTVSPost2010Prop30
280
     1
102
RTVSPost2010PropOp30
 70
     1
102
RTVSPost2010Prop31
280
     0
102
RTVSPost2010PropOp31
 70
     1
102
RTVSPost2010Prop32
280
     0
102
RTVSPost2010PropOp32
 70
     1
102
RTVSPost2010Prop33
280
     0
102
RTVSPost2010PropOp33
 70
     1
102
RTVSPost2010Prop34
280
     0
102
RTVSPost2010PropOp34
 70
     1
102
RTVSPost2010Prop35
280
     0
102
RTVSPost2010PropOp35
 70
     1
102
RTVSPost2010Prop36
280
     0
102
RTVSPost2010PropOp36
 70
     1
102
RTVSPost2010Prop37
 90
       50
102
RTVSPost2010PropOp37
 70
     1
102
RTVSPost2010Prop38
140
0.0
102
RTVSPost2010PropOp38
 70
     1
102
RTVSPost2010Prop39
140
1.0
102
RTVSPost2010PropOp39
 70
     1
102
RTVSPost2010Prop40
 90
        0
102
RTVSPost2010PropOp40
 70
     1
102
RTVSPost2010Prop41ColorIndex
 90
       18
102
RTVSPost2010Prop41ColorRGB
 90
        0
102
RTVSPost2010PropOp41
 70
     1
102
RTVSPost2010Prop42
 90
       50
102
RTVSPost2010PropOp42
 70
     1
102
RTVSPost2010Prop43
 90
        3
102
RTVSPost2010PropOp43
 70
     1
102
RTVSPost2010Prop44ColorIndex
 90
        5
102
RTVSPost2010Prop44ColorRGB
 90
      255
102
RTVSPost2010PropOp44
 70
     1
102
RTVSPost2010Prop45
280
     0
102
RTVSPost2010PropOp45
 70
     1
102
RTVSPost2010Prop46
 90
       50
102
RTVSPost2010PropOp46
 70
     1
102
RTVSPost2010Prop47
 90
       50
102
RTVSPost2010PropOp47
 70
     1
102
RTVSPost2010Prop48
 90
       50
102
RTVSPost2010PropOp48
 70
     1
102
RTVSPost2010Prop49
280
     0
102
RTVSPost2010PropOp49
 70
     1
102
RTVSPost2010Prop50
 90
       50
102
RTVSPost2010PropOp50
 70
     1
102
RTVSPost2010Prop51ColorIndex
 90
      256
102
RTVSPost2010Prop51ColorRGB
 90
-16777216
102
RTVSPost2010PropOp51
 70
     0
102
RTVSPost2010Prop52
140
1.0
102
RTVSPost2010PropOp52
 70
     0
102
RTVSPost2010Prop53
 90
        2
102
RTVSPost2010PropOp53
 70
     1
102
RTVSPost2010Prop54
  1
strokes_ogs.tif
102
RTVSPost2010PropOp54
 70
     1
102
RTVSPost2010Prop55
280
     0
102
RTVSPost2010PropOp55
 70
     1
102
RTVSPost2010Prop56
140
1.0
102
RTVSPost2010PropOp56
 70
     1
102
RTVSPost2010Prop57
140
1.0
102
RTVSPost2010PropOp57
 70
     1
102
RTVSPropertyOp0
 70
     1
102
RTVSPropertyOp1
 70
     1
102
RTVSPropertyOp2
 70
     1
102
RTVSPropertyOp3
 70
     1
102
RTVSPropertyOp4
 70
     1
102
RTVSPropertyOp5
 70
     1
102
RTVSPropertyOp6
 70
     1
102
RTVSPropertyOp7
 70
     1
102
RTVSPropertyOp8
 70
     1
102
RTVSPropertyOp9
 70
     1
102
RTVSPropertyOp10
 70
     1
102
RTVSPropertyOp11
 70
     1
102
RTVSPropertyOp12
 70
     1
102
RTVSPropertyOp13
 70
     1
102
RTVSPropertyOp14
 70
     1
102
RTVSPropertyOp15
 70
     1
102
RTVSPropertyOp16
 70
     1
102
RTVSPropertyOp17
 70
     1
102
RTVSPropertyOp18
 70
     1
102
RTVSPropertyOp19
 70
     1
102
RTVSPropertyOp20
 70
     1
102
RTVSPropertyOp21
 70
     1
102
RTVSPropertyOp22
 70
     1
102
RTVSPropertyOp23
 70
     1
102
RTVSPropertyOp24
 70
     1
102
RTVSPropertyOp25
 70
     1
102
RTVSPropertyOp26
 70
     1
102
RTVSPropertyOp27
 70
     1
102
RTVSPropertyOp28
 70
     1
102
RTVSPropertyOp29
 70
     1
102
RTVSPropertyOp30
 70
     1
102
RTVSPropertyOp31
 70
     1
102
RTVSPropertyOp32
 70
     1
102
RTVSPropertyOp33
 70
     1
102
RTVSPropertyOp34
 70
     1
102
RTVSPropertyOp35
 70
     1
102
RTVSPropertyOp36
 70
     1
102
RTVSPropertyOp37
 70
     1
102
RTVSPropertyOp38
 70
     1
102
RTVSPropertyOp39
 70
     1
102
RTVSPropertyOp40
 70
     1
102
RTVSPropertyOp41
 70
     1
102
RTVSPropertyOp42
 70
     1
102
RTVSPropertyOp43
 70
     1
102
RTVSPropertyOp44
 70
     1
102
RTVSPropertyOp45
 70
     1
102
RTVSPropertyOp46
 70
     1
102
RTVSPropertyOp47
 70
     1
102
RTVSPropertyOp48
 70
     1
102
RTVSPropertyOp49
 70
     1
102
RTVSPropertyOp50
 70
     1
102
RTVSPropertyOp51
 70
     0
102
RTVSPropertyOp52
 70
     0
102
RTVSPropertyOp53
 70
     1
102
RTVSPropertyOp54
 70
     1
102
RTVSPropertyOp55
 70
     1
102
RTVSPropertyOp56
 70
     1
102
RTVSPropertyOp57
 70
     1
102
RTVSPropertyOp58
 70
     1
102
RTVSPropertyOp59
 70
     1
102
RTVSPropertyOp60
 70
     1
102
RTVSPropertyOp61
 70
     1
102
RTVSPropertyOp62
 70
     1
  0
XRECORD
  5
53B5
102
{ACAD_REACTORS
330
53B4
102
}
330
53B4
100
AcDbXrecord
280
     1
102
RTVSPost2010Prop28
280
     0
102
RTVSPost2010PropOp28
 70
     1
102
RTVSPost2010Prop29
280
     1
102
RTVSPost2010PropOp29
 70
     1
102
RTVSPost2010Prop30
280
     1
102
RTVSPost2010PropOp30
 70
     1
102
RTVSPost2010Prop31
280
     0
102
RTVSPost2010PropOp31
 70
     1
102
RTVSPost2010Prop32
280
     0
102
RTVSPost2010PropOp32
 70
     1
102
RTVSPost2010Prop33
280
     0
102
RTVSPost2010PropOp33
 70
     1
102
RTVSPost2010Prop34
280
     0
102
RTVSPost2010PropOp34
 70
     1
102
RTVSPost2010Prop35
280
     0
102
RTVSPost2010PropOp35
 70
     1
102
RTVSPost2010Prop36
280
     0
102
RTVSPost2010PropOp36
 70
     1
102
RTVSPost2010Prop37
 90
       50
102
RTVSPost2010PropOp37
 70
     1
102
RTVSPost2010Prop38
140
0.0
102
RTVSPost2010PropOp38
 70
     1
102
RTVSPost2010Prop39
140
1.0
102
RTVSPost2010PropOp39
 70
     1
102
RTVSPost2010Prop40
 90
        0
102
RTVSPost2010PropOp40
 70
     1
102
RTVSPost2010Prop41ColorIndex
 90
       18
102
RTVSPost2010Prop41ColorRGB
 90
        0
102
RTVSPost2010PropOp41
 70
     1
102
RTVSPost2010Prop42
 90
       50
102
RTVSPost2010PropOp42
 70
     1
102
RTVSPost2010Prop43
 90
        3
102
RTVSPost2010PropOp43
 70
     1
102
RTVSPost2010Prop44ColorIndex
 90
        5
102
RTVSPost2010Prop44ColorRGB
 90
      255
102
RTVSPost2010PropOp44
 70
     1
102
RTVSPost2010Prop45
280
     0
102
RTVSPost2010PropOp45
 70
     1
102
RTVSPost2010Prop46
 90
       50
102
RTVSPost2010PropOp46
 70
     1
102
RTVSPost2010Prop47
 90
       50
102
RTVSPost2010PropOp47
 70
     1
102
RTVSPost2010Prop48
 90
       50
102
RTVSPost2010PropOp48
 70
     1
102
RTVSPost2010Prop49
280
     0
102
RTVSPost2010PropOp49
 70
     1
102
RTVSPost2010Prop50
 90
       50
102
RTVSPost2010PropOp50
 70
     1
102
RTVSPost2010Prop51ColorIndex
 90
      256
102
RTVSPost2010Prop51ColorRGB
 90
-16777216
102
RTVSPost2010PropOp51
 70
     0
102
RTVSPost2010Prop52
140
1.0
102
RTVSPost2010PropOp52
 70
     0
102
RTVSPost2010Prop53
 90
        2
102
RTVSPost2010PropOp53
 70
     1
102
RTVSPost2010Prop54
  1
strokes_ogs.tif
102
RTVSPost2010PropOp54
 70
     1
102
RTVSPost2010Prop55
280
     0
102
RTVSPost2010PropOp55
 70
     1
102
RTVSPost2010Prop56
140
1.0
102
RTVSPost2010PropOp56
 70
     1
102
RTVSPost2010Prop57
140
1.0
102
RTVSPost2010PropOp57
 70
     1
102
RTVSPropertyOp0
 70
     1
102
RTVSPropertyOp1
 70
     1
102
RTVSPropertyOp2
 70
     1
102
RTVSPropertyOp3
 70
     1
102
RTVSPropertyOp4
 70
     1
102
RTVSPropertyOp5
 70
     1
102
RTVSPropertyOp6
 70
     1
102
RTVSPropertyOp7
 70
     1
102
RTVSPropertyOp8
 70
     1
102
RTVSPropertyOp9
 70
     1
102
RTVSPropertyOp10
 70
     1
102
RTVSPropertyOp11
 70
     1
102
RTVSPropertyOp12
 70
     1
102
RTVSPropertyOp13
 70
     1
102
RTVSPropertyOp14
 70
     1
102
RTVSPropertyOp15
 70
     1
102
RTVSPropertyOp16
 70
     1
102
RTVSPropertyOp17
 70
     1
102
RTVSPropertyOp18
 70
     1
102
RTVSPropertyOp19
 70
     1
102
RTVSPropertyOp20
 70
     1
102
RTVSPropertyOp21
 70
     1
102
RTVSPropertyOp22
 70
     1
102
RTVSPropertyOp23
 70
     1
102
RTVSPropertyOp24
 70
     1
102
RTVSPropertyOp25
 70
     1
102
RTVSPropertyOp26
 70
     1
102
RTVSPropertyOp27
 70
     1
102
RTVSPropertyOp28
 70
     1
102
RTVSPropertyOp29
 70
     1
102
RTVSPropertyOp30
 70
     1
102
RTVSPropertyOp31
 70
     1
102
RTVSPropertyOp32
 70
     1
102
RTVSPropertyOp33
 70
     1
102
RTVSPropertyOp34
 70
     1
102
RTVSPropertyOp35
 70
     1
102
RTVSPropertyOp36
 70
     1
102
RTVSPropertyOp37
 70
     1
102
RTVSPropertyOp38
 70
     1
102
RTVSPropertyOp39
 70
     1
102
RTVSPropertyOp40
 70
     1
102
RTVSPropertyOp41
 70
     1
102
RTVSPropertyOp42
 70
     1
102
RTVSPropertyOp43
 70
     1
102
RTVSPropertyOp44
 70
     1
102
RTVSPropertyOp45
 70
     1
102
RTVSPropertyOp46
 70
     1
102
RTVSPropertyOp47
 70
     1
102
RTVSPropertyOp48
 70
     1
102
RTVSPropertyOp49
 70
     1
102
RTVSPropertyOp50
 70
     1
102
RTVSPropertyOp51
 70
     0
102
RTVSPropertyOp52
 70
     0
102
RTVSPropertyOp53
 70
     1
102
RTVSPropertyOp54
 70
     1
102
RTVSPropertyOp55
 70
     1
102
RTVSPropertyOp56
 70
     1
102
RTVSPropertyOp57
 70
     1
102
RTVSPropertyOp58
 70
     1
102
RTVSPropertyOp59
 70
     1
102
RTVSPropertyOp60
 70
     1
102
RTVSPropertyOp61
 70
     1
102
RTVSPropertyOp62
 70
     1
  0
XRECORD
  5
53B7
102
{ACAD_REACTORS
330
53B6
102
}
330
53B6
100
AcDbXrecord
280
     1
102
RTVSPost2010Prop28
280
     0
102
RTVSPost2010PropOp28
 70
     1
102
RTVSPost2010Prop29
280
     1
102
RTVSPost2010PropOp29
 70
     1
102
RTVSPost2010Prop30
280
     1
102
RTVSPost2010PropOp30
 70
     1
102
RTVSPost2010Prop31
280
     0
102
RTVSPost2010PropOp31
 70
     1
102
RTVSPost2010Prop32
280
     0
102
RTVSPost2010PropOp32
 70
     1
102
RTVSPost2010Prop33
280
     0
102
RTVSPost2010PropOp33
 70
     1
102
RTVSPost2010Prop34
280
     0
102
RTVSPost2010PropOp34
 70
     1
102
RTVSPost2010Prop35
280
     0
102
RTVSPost2010PropOp35
 70
     1
102
RTVSPost2010Prop36
280
     0
102
RTVSPost2010PropOp36
 70
     1
102
RTVSPost2010Prop37
 90
       50
102
RTVSPost2010PropOp37
 70
     1
102
RTVSPost2010Prop38
140
0.0
102
RTVSPost2010PropOp38
 70
     1
102
RTVSPost2010Prop39
140
1.0
102
RTVSPost2010PropOp39
 70
     1
102
RTVSPost2010Prop40
 90
        0
102
RTVSPost2010PropOp40
 70
     1
102
RTVSPost2010Prop41ColorIndex
 90
       18
102
RTVSPost2010Prop41ColorRGB
 90
        0
102
RTVSPost2010PropOp41
 70
     1
102
RTVSPost2010Prop42
 90
       50
102
RTVSPost2010PropOp42
 70
     1
102
RTVSPost2010Prop43
 90
        3
102
RTVSPost2010PropOp43
 70
     1
102
RTVSPost2010Prop44ColorIndex
 90
        5
102
RTVSPost2010Prop44ColorRGB
 90
      255
102
RTVSPost2010PropOp44
 70
     1
102
RTVSPost2010Prop45
280
     0
102
RTVSPost2010PropOp45
 70
     1
102
RTVSPost2010Prop46
 90
       50
102
RTVSPost2010PropOp46
 70
     1
102
RTVSPost2010Prop47
 90
       50
102
RTVSPost2010PropOp47
 70
     1
102
RTVSPost2010Prop48
 90
       50
102
RTVSPost2010PropOp48
 70
     1
102
RTVSPost2010Prop49
280
     0
102
RTVSPost2010PropOp49
 70
     1
102
RTVSPost2010Prop50
 90
       50
102
RTVSPost2010PropOp50
 70
     1
102
RTVSPost2010Prop51ColorIndex
 90
      256
102
RTVSPost2010Prop51ColorRGB
 90
-16777216
102
RTVSPost2010PropOp51
 70
     0
102
RTVSPost2010Prop52
140
1.0
102
RTVSPost2010PropOp52
 70
     0
102
RTVSPost2010Prop53
 90
        2
102
RTVSPost2010PropOp53
 70
     1
102
RTVSPost2010Prop54
  1
strokes_ogs.tif
102
RTVSPost2010PropOp54
 70
     1
102
RTVSPost2010Prop55
280
     0
102
RTVSPost2010PropOp55
 70
     1
102
RTVSPost2010Prop56
140
1.0
102
RTVSPost2010PropOp56
 70
     1
102
RTVSPost2010Prop57
140
1.0
102
RTVSPost2010PropOp57
 70
     1
102
RTVSPropertyOp0
 70
     1
102
RTVSPropertyOp1
 70
     1
102
RTVSPropertyOp2
 70
     1
102
RTVSPropertyOp3
 70
     1
102
RTVSPropertyOp4
 70
     1
102
RTVSPropertyOp5
 70
     1
102
RTVSPropertyOp6
 70
     1
102
RTVSPropertyOp7
 70
     1
102
RTVSPropertyOp8
 70
     1
102
RTVSPropertyOp9
 70
     1
102
RTVSPropertyOp10
 70
     1
102
RTVSPropertyOp11
 70
     1
102
RTVSPropertyOp12
 70
     1
102
RTVSPropertyOp13
 70
     1
102
RTVSPropertyOp14
 70
     1
102
RTVSPropertyOp15
 70
     1
102
RTVSPropertyOp16
 70
     1
102
RTVSPropertyOp17
 70
     1
102
RTVSPropertyOp18
 70
     1
102
RTVSPropertyOp19
 70
     1
102
RTVSPropertyOp20
 70
     1
102
RTVSPropertyOp21
 70
     1
102
RTVSPropertyOp22
 70
     1
102
RTVSPropertyOp23
 70
     1
102
RTVSPropertyOp24
 70
     1
102
RTVSPropertyOp25
 70
     1
102
RTVSPropertyOp26
 70
     1
102
RTVSPropertyOp27
 70
     1
102
RTVSPropertyOp28
 70
     1
102
RTVSPropertyOp29
 70
     1
102
RTVSPropertyOp30
 70
     1
102
RTVSPropertyOp31
 70
     1
102
RTVSPropertyOp32
 70
     1
102
RTVSPropertyOp33
 70
     1
102
RTVSPropertyOp34
 70
     1
102
RTVSPropertyOp35
 70
     1
102
RTVSPropertyOp36
 70
     1
102
RTVSPropertyOp37
 70
     1
102
RTVSPropertyOp38
 70
     1
102
RTVSPropertyOp39
 70
     1
102
RTVSPropertyOp40
 70
     1
102
RTVSPropertyOp41
 70
     1
102
RTVSPropertyOp42
 70
     1
102
RTVSPropertyOp43
 70
     1
102
RTVSPropertyOp44
 70
     1
102
RTVSPropertyOp45
 70
     1
102
RTVSPropertyOp46
 70
     1
102
RTVSPropertyOp47
 70
     1
102
RTVSPropertyOp48
 70
     1
102
RTVSPropertyOp49
 70
     1
102
RTVSPropertyOp50
 70
     1
102
RTVSPropertyOp51
 70
     0
102
RTVSPropertyOp52
 70
     0
102
RTVSPropertyOp53
 70
     1
102
RTVSPropertyOp54
 70
     1
102
RTVSPropertyOp55
 70
     1
102
RTVSPropertyOp56
 70
     1
102
RTVSPropertyOp57
 70
     1
102
RTVSPropertyOp58
 70
     1
102
RTVSPropertyOp59
 70
     1
102
RTVSPropertyOp60
 70
     1
102
RTVSPropertyOp61
 70
     1
102
RTVSPropertyOp62
 70
     1
  0
XRECORD
  5
53B9
102
{ACAD_REACTORS
330
53B8
102
}
330
53B8
100
AcDbXrecord
280
     1
102
RTVSPost2010Prop28
280
     0
102
RTVSPost2010PropOp28
 70
     1
102
RTVSPost2010Prop29
280
     1
102
RTVSPost2010PropOp29
 70
     1
102
RTVSPost2010Prop30
280
     1
102
RTVSPost2010PropOp30
 70
     1
102
RTVSPost2010Prop31
280
     0
102
RTVSPost2010PropOp31
 70
     1
102
RTVSPost2010Prop32
280
     0
102
RTVSPost2010PropOp32
 70
     1
102
RTVSPost2010Prop33
280
     0
102
RTVSPost2010PropOp33
 70
     1
102
RTVSPost2010Prop34
280
     0
102
RTVSPost2010PropOp34
 70
     1
102
RTVSPost2010Prop35
280
     0
102
RTVSPost2010PropOp35
 70
     1
102
RTVSPost2010Prop36
280
     0
102
RTVSPost2010PropOp36
 70
     1
102
RTVSPost2010Prop37
 90
       50
102
RTVSPost2010PropOp37
 70
     1
102
RTVSPost2010Prop38
140
0.0
102
RTVSPost2010PropOp38
 70
     1
102
RTVSPost2010Prop39
140
1.0
102
RTVSPost2010PropOp39
 70
     1
102
RTVSPost2010Prop40
 90
        0
102
RTVSPost2010PropOp40
 70
     1
102
RTVSPost2010Prop41ColorIndex
 90
       18
102
RTVSPost2010Prop41ColorRGB
 90
        0
102
RTVSPost2010PropOp41
 70
     1
102
RTVSPost2010Prop42
 90
       50
102
RTVSPost2010PropOp42
 70
     1
102
RTVSPost2010Prop43
 90
        3
102
RTVSPost2010PropOp43
 70
     1
102
RTVSPost2010Prop44ColorIndex
 90
        5
102
RTVSPost2010Prop44ColorRGB
 90
      255
102
RTVSPost2010PropOp44
 70
     1
102
RTVSPost2010Prop45
280
     0
102
RTVSPost2010PropOp45
 70
     1
102
RTVSPost2010Prop46
 90
       50
102
RTVSPost2010PropOp46
 70
     1
102
RTVSPost2010Prop47
 90
       50
102
RTVSPost2010PropOp47
 70
     1
102
RTVSPost2010Prop48
 90
       50
102
RTVSPost2010PropOp48
 70
     1
102
RTVSPost2010Prop49
280
     0
102
RTVSPost2010PropOp49
 70
     1
102
RTVSPost2010Prop50
 90
       50
102
RTVSPost2010PropOp50
 70
     1
102
RTVSPost2010Prop51ColorIndex
 90
      256
102
RTVSPost2010Prop51ColorRGB
 90
-16777216
102
RTVSPost2010PropOp51
 70
     0
102
RTVSPost2010Prop52
140
1.0
102
RTVSPost2010PropOp52
 70
     0
102
RTVSPost2010Prop53
 90
        2
102
RTVSPost2010PropOp53
 70
     1
102
RTVSPost2010Prop54
  1
strokes_ogs.tif
102
RTVSPost2010PropOp54
 70
     1
102
RTVSPost2010Prop55
280
     0
102
RTVSPost2010PropOp55
 70
     1
102
RTVSPost2010Prop56
140
1.0
102
RTVSPost2010PropOp56
 70
     1
102
RTVSPost2010Prop57
140
1.0
102
RTVSPost2010PropOp57
 70
     1
102
RTVSPropertyOp0
 70
     1
102
RTVSPropertyOp1
 70
     1
102
RTVSPropertyOp2
 70
     1
102
RTVSPropertyOp3
 70
     1
102
RTVSPropertyOp4
 70
     1
102
RTVSPropertyOp5
 70
     1
102
RTVSPropertyOp6
 70
     1
102
RTVSPropertyOp7
 70
     1
102
RTVSPropertyOp8
 70
     1
102
RTVSPropertyOp9
 70
     1
102
RTVSPropertyOp10
 70
     1
102
RTVSPropertyOp11
 70
     1
102
RTVSPropertyOp12
 70
     1
102
RTVSPropertyOp13
 70
     1
102
RTVSPropertyOp14
 70
     1
102
RTVSPropertyOp15
 70
     1
102
RTVSPropertyOp16
 70
     1
102
RTVSPropertyOp17
 70
     1
102
RTVSPropertyOp18
 70
     1
102
RTVSPropertyOp19
 70
     1
102
RTVSPropertyOp20
 70
     1
102
RTVSPropertyOp21
 70
     1
102
RTVSPropertyOp22
 70
     1
102
RTVSPropertyOp23
 70
     1
102
RTVSPropertyOp24
 70
     1
102
RTVSPropertyOp25
 70
     1
102
RTVSPropertyOp26
 70
     1
102
RTVSPropertyOp27
 70
     1
102
RTVSPropertyOp28
 70
     1
102
RTVSPropertyOp29
 70
     1
102
RTVSPropertyOp30
 70
     1
102
RTVSPropertyOp31
 70
     1
102
RTVSPropertyOp32
 70
     1
102
RTVSPropertyOp33
 70
     1
102
RTVSPropertyOp34
 70
     1
102
RTVSPropertyOp35
 70
     1
102
RTVSPropertyOp36
 70
     1
102
RTVSPropertyOp37
 70
     1
102
RTVSPropertyOp38
 70
     1
102
RTVSPropertyOp39
 70
     1
102
RTVSPropertyOp40
 70
     1
102
RTVSPropertyOp41
 70
     1
102
RTVSPropertyOp42
 70
     1
102
RTVSPropertyOp43
 70
     1
102
RTVSPropertyOp44
 70
     1
102
RTVSPropertyOp45
 70
     1
102
RTVSPropertyOp46
 70
     1
102
RTVSPropertyOp47
 70
     1
102
RTVSPropertyOp48
 70
     1
102
RTVSPropertyOp49
 70
     1
102
RTVSPropertyOp50
 70
     1
102
RTVSPropertyOp51
 70
     0
102
RTVSPropertyOp52
 70
     0
102
RTVSPropertyOp53
 70
     1
102
RTVSPropertyOp54
 70
     1
102
RTVSPropertyOp55
 70
     1
102
RTVSPropertyOp56
 70
     1
102
RTVSPropertyOp57
 70
     1
102
RTVSPropertyOp58
 70
     1
102
RTVSPropertyOp59
 70
     1
102
RTVSPropertyOp60
 70
     1
102
RTVSPropertyOp61
 70
     1
102
RTVSPropertyOp62
 70
     1
  0
XRECORD
  5
53C1
102
{ACAD_REACTORS
330
53C0
102
}
330
53C0
100
AcDbXrecord
280
     1
102
RTVSPost2010Prop28
280
     0
102
RTVSPost2010PropOp28
 70
     1
102
RTVSPost2010Prop29
280
     1
102
RTVSPost2010PropOp29
 70
     1
102
RTVSPost2010Prop30
280
     1
102
RTVSPost2010PropOp30
 70
     1
102
RTVSPost2010Prop31
280
     0
102
RTVSPost2010PropOp31
 70
     1
102
RTVSPost2010Prop32
280
     0
102
RTVSPost2010PropOp32
 70
     1
102
RTVSPost2010Prop33
280
     0
102
RTVSPost2010PropOp33
 70
     1
102
RTVSPost2010Prop34
280
     0
102
RTVSPost2010PropOp34
 70
     1
102
RTVSPost2010Prop35
280
     0
102
RTVSPost2010PropOp35
 70
     1
102
RTVSPost2010Prop36
280
     0
102
RTVSPost2010PropOp36
 70
     1
102
RTVSPost2010Prop37
 90
       50
102
RTVSPost2010PropOp37
 70
     1
102
RTVSPost2010Prop38
140
0.0
102
RTVSPost2010PropOp38
 70
     1
102
RTVSPost2010Prop39
140
1.0
102
RTVSPost2010PropOp39
 70
     1
102
RTVSPost2010Prop40
 90
        0
102
RTVSPost2010PropOp40
 70
     1
102
RTVSPost2010Prop41ColorIndex
 90
       18
102
RTVSPost2010Prop41ColorRGB
 90
        0
102
RTVSPost2010PropOp41
 70
     1
102
RTVSPost2010Prop42
 90
       50
102
RTVSPost2010PropOp42
 70
     1
102
RTVSPost2010Prop43
 90
        3
102
RTVSPost2010PropOp43
 70
     1
102
RTVSPost2010Prop44ColorIndex
 90
        5
102
RTVSPost2010Prop44ColorRGB
 90
      255
102
RTVSPost2010PropOp44
 70
     1
102
RTVSPost2010Prop45
280
     0
102
RTVSPost2010PropOp45
 70
     1
102
RTVSPost2010Prop46
 90
       50
102
RTVSPost2010PropOp46
 70
     1
102
RTVSPost2010Prop47
 90
       50
102
RTVSPost2010PropOp47
 70
     1
102
RTVSPost2010Prop48
 90
       50
102
RTVSPost2010PropOp48
 70
     1
102
RTVSPost2010Prop49
280
     0
102
RTVSPost2010PropOp49
 70
     1
102
RTVSPost2010Prop50
 90
       50
102
RTVSPost2010PropOp50
 70
     1
102
RTVSPost2010Prop51ColorIndex
 90
      256
102
RTVSPost2010Prop51ColorRGB
 90
-16777216
102
RTVSPost2010PropOp51
 70
     0
102
RTVSPost2010Prop52
140
1.0
102
RTVSPost2010PropOp52
 70
     0
102
RTVSPost2010Prop53
 90
        2
102
RTVSPost2010PropOp53
 70
     1
102
RTVSPost2010Prop54
  1
strokes_ogs.tif
102
RTVSPost2010PropOp54
 70
     1
102
RTVSPost2010Prop55
280
     0
102
RTVSPost2010PropOp55
 70
     1
102
RTVSPost2010Prop56
140
1.0
102
RTVSPost2010PropOp56
 70
     1
102
RTVSPost2010Prop57
140
1.0
102
RTVSPost2010PropOp57
 70
     1
102
RTVSPropertyOp0
 70
     1
102
RTVSPropertyOp1
 70
     1
102
RTVSPropertyOp2
 70
     1
102
RTVSPropertyOp3
 70
     1
102
RTVSPropertyOp4
 70
     1
102
RTVSPropertyOp5
 70
     1
102
RTVSPropertyOp6
 70
     1
102
RTVSPropertyOp7
 70
     1
102
RTVSPropertyOp8
 70
     1
102
RTVSPropertyOp9
 70
     1
102
RTVSPropertyOp10
 70
     1
102
RTVSPropertyOp11
 70
     1
102
RTVSPropertyOp12
 70
     1
102
RTVSPropertyOp13
 70
     1
102
RTVSPropertyOp14
 70
     1
102
RTVSPropertyOp15
 70
     1
102
RTVSPropertyOp16
 70
     1
102
RTVSPropertyOp17
 70
     1
102
RTVSPropertyOp18
 70
     1
102
RTVSPropertyOp19
 70
     1
102
RTVSPropertyOp20
 70
     1
102
RTVSPropertyOp21
 70
     1
102
RTVSPropertyOp22
 70
     1
102
RTVSPropertyOp23
 70
     1
102
RTVSPropertyOp24
 70
     1
102
RTVSPropertyOp25
 70
     1
102
RTVSPropertyOp26
 70
     1
102
RTVSPropertyOp27
 70
     1
102
RTVSPropertyOp28
 70
     1
102
RTVSPropertyOp29
 70
     1
102
RTVSPropertyOp30
 70
     1
102
RTVSPropertyOp31
 70
     1
102
RTVSPropertyOp32
 70
     1
102
RTVSPropertyOp33
 70
     1
102
RTVSPropertyOp34
 70
     1
102
RTVSPropertyOp35
 70
     1
102
RTVSPropertyOp36
 70
     1
102
RTVSPropertyOp37
 70
     1
102
RTVSPropertyOp38
 70
     1
102
RTVSPropertyOp39
 70
     1
102
RTVSPropertyOp40
 70
     1
102
RTVSPropertyOp41
 70
     1
102
RTVSPropertyOp42
 70
     1
102
RTVSPropertyOp43
 70
     1
102
RTVSPropertyOp44
 70
     1
102
RTVSPropertyOp45
 70
     1
102
RTVSPropertyOp46
 70
     1
102
RTVSPropertyOp47
 70
     1
102
RTVSPropertyOp48
 70
     1
102
RTVSPropertyOp49
 70
     1
102
RTVSPropertyOp50
 70
     1
102
RTVSPropertyOp51
 70
     0
102
RTVSPropertyOp52
 70
     0
102
RTVSPropertyOp53
 70
     1
102
RTVSPropertyOp54
 70
     1
102
RTVSPropertyOp55
 70
     1
102
RTVSPropertyOp56
 70
     1
102
RTVSPropertyOp57
 70
     1
102
RTVSPropertyOp58
 70
     1
102
RTVSPropertyOp59
 70
     1
102
RTVSPropertyOp60
 70
     1
102
RTVSPropertyOp61
 70
     1
102
RTVSPropertyOp62
 70
     1
  0
XRECORD
  5
53D5
102
{ACAD_REACTORS
330
53D4
102
}
330
53D4
100
AcDbXrecord
280
     1
102
RTVSPost2010Prop28
280
     0
102
RTVSPost2010PropOp28
 70
     1
102
RTVSPost2010Prop29
280
     1
102
RTVSPost2010PropOp29
 70
     1
102
RTVSPost2010Prop30
280
     1
102
RTVSPost2010PropOp30
 70
     1
102
RTVSPost2010Prop31
280
     0
102
RTVSPost2010PropOp31
 70
     1
102
RTVSPost2010Prop32
280
     0
102
RTVSPost2010PropOp32
 70
     1
102
RTVSPost2010Prop33
280
     0
102
RTVSPost2010PropOp33
 70
     1
102
RTVSPost2010Prop34
280
     0
102
RTVSPost2010PropOp34
 70
     1
102
RTVSPost2010Prop35
280
     0
102
RTVSPost2010PropOp35
 70
     1
102
RTVSPost2010Prop36
280
     0
102
RTVSPost2010PropOp36
 70
     1
102
RTVSPost2010Prop37
 90
       50
102
RTVSPost2010PropOp37
 70
     1
102
RTVSPost2010Prop38
140
0.0
102
RTVSPost2010PropOp38
 70
     1
102
RTVSPost2010Prop39
140
1.0
102
RTVSPost2010PropOp39
 70
     1
102
RTVSPost2010Prop40
 90
        0
102
RTVSPost2010PropOp40
 70
     1
102
RTVSPost2010Prop41ColorIndex
 90
       18
102
RTVSPost2010Prop41ColorRGB
 90
        0
102
RTVSPost2010PropOp41
 70
     1
102
RTVSPost2010Prop42
 90
       50
102
RTVSPost2010PropOp42
 70
     1
102
RTVSPost2010Prop43
 90
        3
102
RTVSPost2010PropOp43
 70
     1
102
RTVSPost2010Prop44ColorIndex
 90
        5
102
RTVSPost2010Prop44ColorRGB
 90
      255
102
RTVSPost2010PropOp44
 70
     1
102
RTVSPost2010Prop45
280
     0
102
RTVSPost2010PropOp45
 70
     1
102
RTVSPost2010Prop46
 90
       50
102
RTVSPost2010PropOp46
 70
     1
102
RTVSPost2010Prop47
 90
       50
102
RTVSPost2010PropOp47
 70
     1
102
RTVSPost2010Prop48
 90
       50
102
RTVSPost2010PropOp48
 70
     1
102
RTVSPost2010Prop49
280
     0
102
RTVSPost2010PropOp49
 70
     1
102
RTVSPost2010Prop50
 90
       50
102
RTVSPost2010PropOp50
 70
     1
102
RTVSPost2010Prop51ColorIndex
 90
      256
102
RTVSPost2010Prop51ColorRGB
 90
-16777216
102
RTVSPost2010PropOp51
 70
     0
102
RTVSPost2010Prop52
140
1.0
102
RTVSPost2010PropOp52
 70
     0
102
RTVSPost2010Prop53
 90
        2
102
RTVSPost2010PropOp53
 70
     1
102
RTVSPost2010Prop54
  1
strokes_ogs.tif
102
RTVSPost2010PropOp54
 70
     1
102
RTVSPost2010Prop55
280
     0
102
RTVSPost2010PropOp55
 70
     1
102
RTVSPost2010Prop56
140
1.0
102
RTVSPost2010PropOp56
 70
     1
102
RTVSPost2010Prop57
140
1.0
102
RTVSPost2010PropOp57
 70
     1
102
RTVSPropertyOp0
 70
     0
102
RTVSPropertyOp1
 70
     0
102
RTVSPropertyOp2
 70
     0
102
RTVSPropertyOp3
 70
     0
102
RTVSPropertyOp4
 70
     0
102
RTVSPropertyOp5
 70
     0
102
RTVSPropertyOp6
 70
     0
102
RTVSPropertyOp7
 70
     0
102
RTVSPropertyOp8
 70
     0
102
RTVSPropertyOp9
 70
     0
102
RTVSPropertyOp10
 70
     0
102
RTVSPropertyOp11
 70
     0
102
RTVSPropertyOp12
 70
     0
102
RTVSPropertyOp13
 70
     0
102
RTVSPropertyOp14
 70
     2
102
RTVSPropertyOp15
 70
     0
102
RTVSPropertyOp16
 70
     0
102
RTVSPropertyOp17
 70
     0
102
RTVSPropertyOp18
 70
     0
102
RTVSPropertyOp19
 70
     0
102
RTVSPropertyOp20
 70
     0
102
RTVSPropertyOp21
 70
     0
102
RTVSPropertyOp22
 70
     0
102
RTVSPropertyOp23
 70
     0
102
RTVSPropertyOp24
 70
     0
102
RTVSPropertyOp25
 70
     0
102
RTVSPropertyOp26
 70
     0
102
RTVSPropertyOp27
 70
     0
102
RTVSPropertyOp28
 70
     1
102
RTVSPropertyOp29
 70
     1
102
RTVSPropertyOp30
 70
     1
102
RTVSPropertyOp31
 70
     1
102
RTVSPropertyOp32
 70
     1
102
RTVSPropertyOp33
 70
     1
102
RTVSPropertyOp34
 70
     1
102
RTVSPropertyOp35
 70
     1
102
RTVSPropertyOp36
 70
     1
102
RTVSPropertyOp37
 70
     1
102
RTVSPropertyOp38
 70
     1
102
RTVSPropertyOp39
 70
     1
102
RTVSPropertyOp40
 70
     1
102
RTVSPropertyOp41
 70
     1
102
RTVSPropertyOp42
 70
     1
102
RTVSPropertyOp43
 70
     1
102
RTVSPropertyOp44
 70
     1
102
RTVSPropertyOp45
 70
     1
102
RTVSPropertyOp46
 70
     1
102
RTVSPropertyOp47
 70
     1
102
RTVSPropertyOp48
 70
     1
102
RTVSPropertyOp49
 70
     1
102
RTVSPropertyOp50
 70
     1
102
RTVSPropertyOp51
 70
     0
102
RTVSPropertyOp52
 70
     0
102
RTVSPropertyOp53
 70
     1
102
RTVSPropertyOp54
 70
     1
102
RTVSPropertyOp55
 70
     1
102
RTVSPropertyOp56
 70
     1
102
RTVSPropertyOp57
 70
     1
102
RTVSPropertyOp58
 70
     1
102
RTVSPropertyOp59
 70
     1
102
RTVSPropertyOp60
 70
     1
102
RTVSPropertyOp61
 70
     1
102
RTVSPropertyOp62
 70
     1
  0
XRECORD
  5
53CD
102
{ACAD_REACTORS
330
53CC
102
}
330
53CC
100
AcDbXrecord
280
     1
102
RTVSPost2010Prop28
280
     0
102
RTVSPost2010PropOp28
 70
     1
102
RTVSPost2010Prop29
280
     1
102
RTVSPost2010PropOp29
 70
     1
102
RTVSPost2010Prop30
280
     1
102
RTVSPost2010PropOp30
 70
     1
102
RTVSPost2010Prop31
280
     0
102
RTVSPost2010PropOp31
 70
     1
102
RTVSPost2010Prop32
280
     0
102
RTVSPost2010PropOp32
 70
     1
102
RTVSPost2010Prop33
280
     0
102
RTVSPost2010PropOp33
 70
     1
102
RTVSPost2010Prop34
280
     0
102
RTVSPost2010PropOp34
 70
     1
102
RTVSPost2010Prop35
280
     0
102
RTVSPost2010PropOp35
 70
     1
102
RTVSPost2010Prop36
280
     0
102
RTVSPost2010PropOp36
 70
     1
102
RTVSPost2010Prop37
 90
       50
102
RTVSPost2010PropOp37
 70
     1
102
RTVSPost2010Prop38
140
0.0
102
RTVSPost2010PropOp38
 70
     1
102
RTVSPost2010Prop39
140
1.0
102
RTVSPost2010PropOp39
 70
     1
102
RTVSPost2010Prop40
 90
        0
102
RTVSPost2010PropOp40
 70
     1
102
RTVSPost2010Prop41ColorIndex
 90
       18
102
RTVSPost2010Prop41ColorRGB
 90
        0
102
RTVSPost2010PropOp41
 70
     1
102
RTVSPost2010Prop42
 90
       50
102
RTVSPost2010PropOp42
 70
     1
102
RTVSPost2010Prop43
 90
        3
102
RTVSPost2010PropOp43
 70
     1
102
RTVSPost2010Prop44ColorIndex
 90
        5
102
RTVSPost2010Prop44ColorRGB
 90
      255
102
RTVSPost2010PropOp44
 70
     1
102
RTVSPost2010Prop45
280
     0
102
RTVSPost2010PropOp45
 70
     1
102
RTVSPost2010Prop46
 90
       50
102
RTVSPost2010PropOp46
 70
     1
102
RTVSPost2010Prop47
 90
       50
102
RTVSPost2010PropOp47
 70
     1
102
RTVSPost2010Prop48
 90
       50
102
RTVSPost2010PropOp48
 70
     1
102
RTVSPost2010Prop49
280
     0
102
RTVSPost2010PropOp49
 70
     1
102
RTVSPost2010Prop50
 90
       50
102
RTVSPost2010PropOp50
 70
     1
102
RTVSPost2010Prop51ColorIndex
 90
      256
102
RTVSPost2010Prop51ColorRGB
 90
-16777216
102
RTVSPost2010PropOp51
 70
     0
102
RTVSPost2010Prop52
140
1.0
102
RTVSPost2010PropOp52
 70
     0
102
RTVSPost2010Prop53
 90
        2
102
RTVSPost2010PropOp53
 70
     1
102
RTVSPost2010Prop54
  1
strokes_ogs.tif
102
RTVSPost2010PropOp54
 70
     1
102
RTVSPost2010Prop55
280
     0
102
RTVSPost2010PropOp55
 70
     1
102
RTVSPost2010Prop56
140
1.0
102
RTVSPost2010PropOp56
 70
     1
102
RTVSPost2010Prop57
140
1.0
102
RTVSPost2010PropOp57
 70
     1
102
RTVSPropertyOp0
 70
     1
102
RTVSPropertyOp1
 70
     1
102
RTVSPropertyOp2
 70
     1
102
RTVSPropertyOp3
 70
     1
102
RTVSPropertyOp4
 70
     1
102
RTVSPropertyOp5
 70
     1
102
RTVSPropertyOp6
 70
     1
102
RTVSPropertyOp7
 70
     1
102
RTVSPropertyOp8
 70
     1
102
RTVSPropertyOp9
 70
     1
102
RTVSPropertyOp10
 70
     1
102
RTVSPropertyOp11
 70
     1
102
RTVSPropertyOp12
 70
     1
102
RTVSPropertyOp13
 70
     1
102
RTVSPropertyOp14
 70
     1
102
RTVSPropertyOp15
 70
     1
102
RTVSPropertyOp16
 70
     1
102
RTVSPropertyOp17
 70
     1
102
RTVSPropertyOp18
 70
     1
102
RTVSPropertyOp19
 70
     1
102
RTVSPropertyOp20
 70
     1
102
RTVSPropertyOp21
 70
     1
102
RTVSPropertyOp22
 70
     1
102
RTVSPropertyOp23
 70
     1
102
RTVSPropertyOp24
 70
     1
102
RTVSPropertyOp25
 70
     1
102
RTVSPropertyOp26
 70
     1
102
RTVSPropertyOp27
 70
     1
102
RTVSPropertyOp28
 70
     1
102
RTVSPropertyOp29
 70
     1
102
RTVSPropertyOp30
 70
     1
102
RTVSPropertyOp31
 70
     1
102
RTVSPropertyOp32
 70
     1
102
RTVSPropertyOp33
 70
     1
102
RTVSPropertyOp34
 70
     1
102
RTVSPropertyOp35
 70
     1
102
RTVSPropertyOp36
 70
     1
102
RTVSPropertyOp37
 70
     1
102
RTVSPropertyOp38
 70
     1
102
RTVSPropertyOp39
 70
     1
102
RTVSPropertyOp40
 70
     1
102
RTVSPropertyOp41
 70
     1
102
RTVSPropertyOp42
 70
     1
102
RTVSPropertyOp43
 70
     1
102
RTVSPropertyOp44
 70
     1
102
RTVSPropertyOp45
 70
     1
102
RTVSPropertyOp46
 70
     1
102
RTVSPropertyOp47
 70
     1
102
RTVSPropertyOp48
 70
     1
102
RTVSPropertyOp49
 70
     1
102
RTVSPropertyOp50
 70
     1
102
RTVSPropertyOp51
 70
     0
102
RTVSPropertyOp52
 70
     0
102
RTVSPropertyOp53
 70
     1
102
RTVSPropertyOp54
 70
     1
102
RTVSPropertyOp55
 70
     1
102
RTVSPropertyOp56
 70
     1
102
RTVSPropertyOp57
 70
     1
102
RTVSPropertyOp58
 70
     1
102
RTVSPropertyOp59
 70
     1
102
RTVSPropertyOp60
 70
     1
102
RTVSPropertyOp61
 70
     1
102
RTVSPropertyOp62
 70
     1
  0
XRECORD
  5
53D7
102
{ACAD_REACTORS
330
53D6
102
}
330
53D6
100
AcDbXrecord
280
     1
102
RTVSPost2010Prop28
280
     0
102
RTVSPost2010PropOp28
 70
     1
102
RTVSPost2010Prop29
280
     1
102
RTVSPost2010PropOp29
 70
     1
102
RTVSPost2010Prop30
280
     1
102
RTVSPost2010PropOp30
 70
     1
102
RTVSPost2010Prop31
280
     0
102
RTVSPost2010PropOp31
 70
     1
102
RTVSPost2010Prop32
280
     0
102
RTVSPost2010PropOp32
 70
     1
102
RTVSPost2010Prop33
280
     0
102
RTVSPost2010PropOp33
 70
     1
102
RTVSPost2010Prop34
280
     0
102
RTVSPost2010PropOp34
 70
     1
102
RTVSPost2010Prop35
280
     0
102
RTVSPost2010PropOp35
 70
     1
102
RTVSPost2010Prop36
280
     0
102
RTVSPost2010PropOp36
 70
     1
102
RTVSPost2010Prop37
 90
       50
102
RTVSPost2010PropOp37
 70
     1
102
RTVSPost2010Prop38
140
0.0
102
RTVSPost2010PropOp38
 70
     1
102
RTVSPost2010Prop39
140
1.0
102
RTVSPost2010PropOp39
 70
     1
102
RTVSPost2010Prop40
 90
        0
102
RTVSPost2010PropOp40
 70
     1
102
RTVSPost2010Prop41ColorIndex
 90
       18
102
RTVSPost2010Prop41ColorRGB
 90
        0
102
RTVSPost2010PropOp41
 70
     1
102
RTVSPost2010Prop42
 90
       50
102
RTVSPost2010PropOp42
 70
     1
102
RTVSPost2010Prop43
 90
        3
102
RTVSPost2010PropOp43
 70
     1
102
RTVSPost2010Prop44ColorIndex
 90
        5
102
RTVSPost2010Prop44ColorRGB
 90
      255
102
RTVSPost2010PropOp44
 70
     1
102
RTVSPost2010Prop45
280
     0
102
RTVSPost2010PropOp45
 70
     1
102
RTVSPost2010Prop46
 90
       50
102
RTVSPost2010PropOp46
 70
     1
102
RTVSPost2010Prop47
 90
       50
102
RTVSPost2010PropOp47
 70
     1
102
RTVSPost2010Prop48
 90
       50
102
RTVSPost2010PropOp48
 70
     1
102
RTVSPost2010Prop49
280
     0
102
RTVSPost2010PropOp49
 70
     1
102
RTVSPost2010Prop50
 90
       50
102
RTVSPost2010PropOp50
 70
     1
102
RTVSPost2010Prop51ColorIndex
 90
      256
102
RTVSPost2010Prop51ColorRGB
 90
-16777216
102
RTVSPost2010PropOp51
 70
     0
102
RTVSPost2010Prop52
140
1.0
102
RTVSPost2010PropOp52
 70
     0
102
RTVSPost2010Prop53
 90
        2
102
RTVSPost2010PropOp53
 70
     1
102
RTVSPost2010Prop54
  1
strokes_ogs.tif
102
RTVSPost2010PropOp54
 70
     1
102
RTVSPost2010Prop55
280
     0
102
RTVSPost2010PropOp55
 70
     1
102
RTVSPost2010Prop56
140
1.0
102
RTVSPost2010PropOp56
 70
     1
102
RTVSPost2010Prop57
140
1.0
102
RTVSPost2010PropOp57
 70
     1
102
RTVSPropertyOp0
 70
     0
102
RTVSPropertyOp1
 70
     0
102
RTVSPropertyOp2
 70
     0
102
RTVSPropertyOp3
 70
     0
102
RTVSPropertyOp4
 70
     0
102
RTVSPropertyOp5
 70
     0
102
RTVSPropertyOp6
 70
     0
102
RTVSPropertyOp7
 70
     0
102
RTVSPropertyOp8
 70
     0
102
RTVSPropertyOp9
 70
     0
102
RTVSPropertyOp10
 70
     0
102
RTVSPropertyOp11
 70
     0
102
RTVSPropertyOp12
 70
     0
102
RTVSPropertyOp13
 70
     0
102
RTVSPropertyOp14
 70
     2
102
RTVSPropertyOp15
 70
     0
102
RTVSPropertyOp16
 70
     0
102
RTVSPropertyOp17
 70
     0
102
RTVSPropertyOp18
 70
     0
102
RTVSPropertyOp19
 70
     0
102
RTVSPropertyOp20
 70
     0
102
RTVSPropertyOp21
 70
     0
102
RTVSPropertyOp22
 70
     0
102
RTVSPropertyOp23
 70
     0
102
RTVSPropertyOp24
 70
     0
102
RTVSPropertyOp25
 70
     0
102
RTVSPropertyOp26
 70
     0
102
RTVSPropertyOp27
 70
     0
102
RTVSPropertyOp28
 70
     1
102
RTVSPropertyOp29
 70
     1
102
RTVSPropertyOp30
 70
     1
102
RTVSPropertyOp31
 70
     1
102
RTVSPropertyOp32
 70
     1
102
RTVSPropertyOp33
 70
     1
102
RTVSPropertyOp34
 70
     1
102
RTVSPropertyOp35
 70
     1
102
RTVSPropertyOp36
 70
     1
102
RTVSPropertyOp37
 70
     1
102
RTVSPropertyOp38
 70
     1
102
RTVSPropertyOp39
 70
     1
102
RTVSPropertyOp40
 70
     1
102
RTVSPropertyOp41
 70
     1
102
RTVSPropertyOp42
 70
     1
102
RTVSPropertyOp43
 70
     1
102
RTVSPropertyOp44
 70
     1
102
RTVSPropertyOp45
 70
     1
102
RTVSPropertyOp46
 70
     1
102
RTVSPropertyOp47
 70
     1
102
RTVSPropertyOp48
 70
     1
102
RTVSPropertyOp49
 70
     1
102
RTVSPropertyOp50
 70
     1
102
RTVSPropertyOp51
 70
     0
102
RTVSPropertyOp52
 70
     0
102
RTVSPropertyOp53
 70
     1
102
RTVSPropertyOp54
 70
     1
102
RTVSPropertyOp55
 70
     1
102
RTVSPropertyOp56
 70
     1
102
RTVSPropertyOp57
 70
     1
102
RTVSPropertyOp58
 70
     1
102
RTVSPropertyOp59
 70
     1
102
RTVSPropertyOp60
 70
     1
102
RTVSPropertyOp61
 70
     1
102
RTVSPropertyOp62
 70
     1
  0
XRECORD
  5
53C5
102
{ACAD_REACTORS
330
53C4
102
}
330
53C4
100
AcDbXrecord
280
     1
102
RTVSPost2010Prop28
280
     0
102
RTVSPost2010PropOp28
 70
     1
102
RTVSPost2010Prop29
280
     1
102
RTVSPost2010PropOp29
 70
     1
102
RTVSPost2010Prop30
280
     1
102
RTVSPost2010PropOp30
 70
     1
102
RTVSPost2010Prop31
280
     0
102
RTVSPost2010PropOp31
 70
     1
102
RTVSPost2010Prop32
280
     0
102
RTVSPost2010PropOp32
 70
     1
102
RTVSPost2010Prop33
280
     0
102
RTVSPost2010PropOp33
 70
     1
102
RTVSPost2010Prop34
280
     0
102
RTVSPost2010PropOp34
 70
     1
102
RTVSPost2010Prop35
280
     0
102
RTVSPost2010PropOp35
 70
     1
102
RTVSPost2010Prop36
280
     0
102
RTVSPost2010PropOp36
 70
     1
102
RTVSPost2010Prop37
 90
       50
102
RTVSPost2010PropOp37
 70
     1
102
RTVSPost2010Prop38
140
0.0
102
RTVSPost2010PropOp38
 70
     1
102
RTVSPost2010Prop39
140
1.0
102
RTVSPost2010PropOp39
 70
     1
102
RTVSPost2010Prop40
 90
        0
102
RTVSPost2010PropOp40
 70
     1
102
RTVSPost2010Prop41ColorIndex
 90
       18
102
RTVSPost2010Prop41ColorRGB
 90
        0
102
RTVSPost2010PropOp41
 70
     1
102
RTVSPost2010Prop42
 90
       50
102
RTVSPost2010PropOp42
 70
     1
102
RTVSPost2010Prop43
 90
        3
102
RTVSPost2010PropOp43
 70
     1
102
RTVSPost2010Prop44ColorIndex
 90
        5
102
RTVSPost2010Prop44ColorRGB
 90
      255
102
RTVSPost2010PropOp44
 70
     1
102
RTVSPost2010Prop45
280
     0
102
RTVSPost2010PropOp45
 70
     1
102
RTVSPost2010Prop46
 90
       50
102
RTVSPost2010PropOp46
 70
     1
102
RTVSPost2010Prop47
 90
       50
102
RTVSPost2010PropOp47
 70
     1
102
RTVSPost2010Prop48
 90
       50
102
RTVSPost2010PropOp48
 70
     1
102
RTVSPost2010Prop49
280
     0
102
RTVSPost2010PropOp49
 70
     1
102
RTVSPost2010Prop50
 90
       50
102
RTVSPost2010PropOp50
 70
     1
102
RTVSPost2010Prop51ColorIndex
 90
      256
102
RTVSPost2010Prop51ColorRGB
 90
-16777216
102
RTVSPost2010PropOp51
 70
     0
102
RTVSPost2010Prop52
140
1.0
102
RTVSPost2010PropOp52
 70
     0
102
RTVSPost2010Prop53
 90
        2
102
RTVSPost2010PropOp53
 70
     1
102
RTVSPost2010Prop54
  1
strokes_ogs.tif
102
RTVSPost2010PropOp54
 70
     1
102
RTVSPost2010Prop55
280
     0
102
RTVSPost2010PropOp55
 70
     1
102
RTVSPost2010Prop56
140
1.0
102
RTVSPost2010PropOp56
 70
     1
102
RTVSPost2010Prop57
140
1.0
102
RTVSPost2010PropOp57
 70
     1
102
RTVSPropertyOp0
 70
     1
102
RTVSPropertyOp1
 70
     1
102
RTVSPropertyOp2
 70
     1
102
RTVSPropertyOp3
 70
     1
102
RTVSPropertyOp4
 70
     1
102
RTVSPropertyOp5
 70
     1
102
RTVSPropertyOp6
 70
     1
102
RTVSPropertyOp7
 70
     1
102
RTVSPropertyOp8
 70
     1
102
RTVSPropertyOp9
 70
     1
102
RTVSPropertyOp10
 70
     1
102
RTVSPropertyOp11
 70
     1
102
RTVSPropertyOp12
 70
     1
102
RTVSPropertyOp13
 70
     1
102
RTVSPropertyOp14
 70
     1
102
RTVSPropertyOp15
 70
     1
102
RTVSPropertyOp16
 70
     1
102
RTVSPropertyOp17
 70
     1
102
RTVSPropertyOp18
 70
     1
102
RTVSPropertyOp19
 70
     1
102
RTVSPropertyOp20
 70
     1
102
RTVSPropertyOp21
 70
     1
102
RTVSPropertyOp22
 70
     1
102
RTVSPropertyOp23
 70
     1
102
RTVSPropertyOp24
 70
     1
102
RTVSPropertyOp25
 70
     1
102
RTVSPropertyOp26
 70
     1
102
RTVSPropertyOp27
 70
     1
102
RTVSPropertyOp28
 70
     1
102
RTVSPropertyOp29
 70
     1
102
RTVSPropertyOp30
 70
     1
102
RTVSPropertyOp31
 70
     1
102
RTVSPropertyOp32
 70
     1
102
RTVSPropertyOp33
 70
     1
102
RTVSPropertyOp34
 70
     1
102
RTVSPropertyOp35
 70
     1
102
RTVSPropertyOp36
 70
     1
102
RTVSPropertyOp37
 70
     1
102
RTVSPropertyOp38
 70
     1
102
RTVSPropertyOp39
 70
     1
102
RTVSPropertyOp40
 70
     1
102
RTVSPropertyOp41
 70
     1
102
RTVSPropertyOp42
 70
     1
102
RTVSPropertyOp43
 70
     1
102
RTVSPropertyOp44
 70
     1
102
RTVSPropertyOp45
 70
     1
102
RTVSPropertyOp46
 70
     1
102
RTVSPropertyOp47
 70
     1
102
RTVSPropertyOp48
 70
     1
102
RTVSPropertyOp49
 70
     1
102
RTVSPropertyOp50
 70
     1
102
RTVSPropertyOp51
 70
     0
102
RTVSPropertyOp52
 70
     0
102
RTVSPropertyOp53
 70
     1
102
RTVSPropertyOp54
 70
     1
102
RTVSPropertyOp55
 70
     1
102
RTVSPropertyOp56
 70
     1
102
RTVSPropertyOp57
 70
     1
102
RTVSPropertyOp58
 70
     1
102
RTVSPropertyOp59
 70
     1
102
RTVSPropertyOp60
 70
     1
102
RTVSPropertyOp61
 70
     1
102
RTVSPropertyOp62
 70
     1
  0
XRECORD
  5
53E3
102
{ACAD_REACTORS
330
53E2
102
}
330
53E2
100
AcDbXrecord
280
     1
102
RTVSPost2010Prop28
280
     0
102
RTVSPost2010PropOp28
 70
     1
102
RTVSPost2010Prop29
280
     1
102
RTVSPost2010PropOp29
 70
     1
102
RTVSPost2010Prop30
280
     1
102
RTVSPost2010PropOp30
 70
     1
102
RTVSPost2010Prop31
280
     0
102
RTVSPost2010PropOp31
 70
     1
102
RTVSPost2010Prop32
280
     0
102
RTVSPost2010PropOp32
 70
     1
102
RTVSPost2010Prop33
280
     0
102
RTVSPost2010PropOp33
 70
     1
102
RTVSPost2010Prop34
280
     0
102
RTVSPost2010PropOp34
 70
     1
102
RTVSPost2010Prop35
280
     0
102
RTVSPost2010PropOp35
 70
     1
102
RTVSPost2010Prop36
280
     0
102
RTVSPost2010PropOp36
 70
     1
102
RTVSPost2010Prop37
 90
       50
102
RTVSPost2010PropOp37
 70
     1
102
RTVSPost2010Prop38
140
0.0
102
RTVSPost2010PropOp38
 70
     1
102
RTVSPost2010Prop39
140
1.0
102
RTVSPost2010PropOp39
 70
     1
102
RTVSPost2010Prop40
 90
        0
102
RTVSPost2010PropOp40
 70
     1
102
RTVSPost2010Prop41ColorIndex
 90
       18
102
RTVSPost2010Prop41ColorRGB
 90
        0
102
RTVSPost2010PropOp41
 70
     1
102
RTVSPost2010Prop42
 90
       50
102
RTVSPost2010PropOp42
 70
     1
102
RTVSPost2010Prop43
 90
        3
102
RTVSPost2010PropOp43
 70
     1
102
RTVSPost2010Prop44ColorIndex
 90
        5
102
RTVSPost2010Prop44ColorRGB
 90
      255
102
RTVSPost2010PropOp44
 70
     1
102
RTVSPost2010Prop45
280
     0
102
RTVSPost2010PropOp45
 70
     1
102
RTVSPost2010Prop46
 90
       50
102
RTVSPost2010PropOp46
 70
     1
102
RTVSPost2010Prop47
 90
       50
102
RTVSPost2010PropOp47
 70
     1
102
RTVSPost2010Prop48
 90
       50
102
RTVSPost2010PropOp48
 70
     1
102
RTVSPost2010Prop49
280
     0
102
RTVSPost2010PropOp49
 70
     1
102
RTVSPost2010Prop50
 90
       50
102
RTVSPost2010PropOp50
 70
     1
102
RTVSPost2010Prop51ColorIndex
 90
      256
102
RTVSPost2010Prop51ColorRGB
 90
-16777216
102
RTVSPost2010PropOp51
 70
     0
102
RTVSPost2010Prop52
140
1.0
102
RTVSPost2010PropOp52
 70
     0
102
RTVSPost2010Prop53
 90
        2
102
RTVSPost2010PropOp53
 70
     1
102
RTVSPost2010Prop54
  1
strokes_ogs.tif
102
RTVSPost2010PropOp54
 70
     1
102
RTVSPost2010Prop55
280
     0
102
RTVSPost2010PropOp55
 70
     1
102
RTVSPost2010Prop56
140
1.0
102
RTVSPost2010PropOp56
 70
     1
102
RTVSPost2010Prop57
140
1.0
102
RTVSPost2010PropOp57
 70
     1
102
RTVSPropertyOp0
 70
     1
102
RTVSPropertyOp1
 70
     1
102
RTVSPropertyOp2
 70
     1
102
RTVSPropertyOp3
 70
     1
102
RTVSPropertyOp4
 70
     1
102
RTVSPropertyOp5
 70
     1
102
RTVSPropertyOp6
 70
     1
102
RTVSPropertyOp7
 70
     1
102
RTVSPropertyOp8
 70
     1
102
RTVSPropertyOp9
 70
     1
102
RTVSPropertyOp10
 70
     1
102
RTVSPropertyOp11
 70
     1
102
RTVSPropertyOp12
 70
     1
102
RTVSPropertyOp13
 70
     1
102
RTVSPropertyOp14
 70
     1
102
RTVSPropertyOp15
 70
     1
102
RTVSPropertyOp16
 70
     1
102
RTVSPropertyOp17
 70
     1
102
RTVSPropertyOp18
 70
     1
102
RTVSPropertyOp19
 70
     1
102
RTVSPropertyOp20
 70
     1
102
RTVSPropertyOp21
 70
     1
102
RTVSPropertyOp22
 70
     1
102
RTVSPropertyOp23
 70
     1
102
RTVSPropertyOp24
 70
     1
102
RTVSPropertyOp25
 70
     1
102
RTVSPropertyOp26
 70
     1
102
RTVSPropertyOp27
 70
     1
102
RTVSPropertyOp28
 70
     1
102
RTVSPropertyOp29
 70
     1
102
RTVSPropertyOp30
 70
     1
102
RTVSPropertyOp31
 70
     1
102
RTVSPropertyOp32
 70
     1
102
RTVSPropertyOp33
 70
     1
102
RTVSPropertyOp34
 70
     1
102
RTVSPropertyOp35
 70
     1
102
RTVSPropertyOp36
 70
     1
102
RTVSPropertyOp37
 70
     1
102
RTVSPropertyOp38
 70
     1
102
RTVSPropertyOp39
 70
     1
102
RTVSPropertyOp40
 70
     1
102
RTVSPropertyOp41
 70
     1
102
RTVSPropertyOp42
 70
     1
102
RTVSPropertyOp43
 70
     1
102
RTVSPropertyOp44
 70
     1
102
RTVSPropertyOp45
 70
     1
102
RTVSPropertyOp46
 70
     1
102
RTVSPropertyOp47
 70
     1
102
RTVSPropertyOp48
 70
     1
102
RTVSPropertyOp49
 70
     1
102
RTVSPropertyOp50
 70
     1
102
RTVSPropertyOp51
 70
     0
102
RTVSPropertyOp52
 70
     0
102
RTVSPropertyOp53
 70
     1
102
RTVSPropertyOp54
 70
     1
102
RTVSPropertyOp55
 70
     1
102
RTVSPropertyOp56
 70
     1
102
RTVSPropertyOp57
 70
     1
102
RTVSPropertyOp58
 70
     1
102
RTVSPropertyOp59
 70
     1
102
RTVSPropertyOp60
 70
     1
102
RTVSPropertyOp61
 70
     1
102
RTVSPropertyOp62
 70
     1
  0
XRECORD
  5
53E1
102
{ACAD_REACTORS
330
53E0
102
}
330
53E0
100
AcDbXrecord
280
     1
102
RTVSPost2010Prop28
280
     0
102
RTVSPost2010PropOp28
 70
     1
102
RTVSPost2010Prop29
280
     1
102
RTVSPost2010PropOp29
 70
     1
102
RTVSPost2010Prop30
280
     1
102
RTVSPost2010PropOp30
 70
     1
102
RTVSPost2010Prop31
280
     0
102
RTVSPost2010PropOp31
 70
     1
102
RTVSPost2010Prop32
280
     0
102
RTVSPost2010PropOp32
 70
     1
102
RTVSPost2010Prop33
280
     0
102
RTVSPost2010PropOp33
 70
     1
102
RTVSPost2010Prop34
280
     0
102
RTVSPost2010PropOp34
 70
     1
102
RTVSPost2010Prop35
280
     0
102
RTVSPost2010PropOp35
 70
     1
102
RTVSPost2010Prop36
280
     0
102
RTVSPost2010PropOp36
 70
     1
102
RTVSPost2010Prop37
 90
       50
102
RTVSPost2010PropOp37
 70
     1
102
RTVSPost2010Prop38
140
0.0
102
RTVSPost2010PropOp38
 70
     1
102
RTVSPost2010Prop39
140
1.0
102
RTVSPost2010PropOp39
 70
     1
102
RTVSPost2010Prop40
 90
        0
102
RTVSPost2010PropOp40
 70
     1
102
RTVSPost2010Prop41ColorIndex
 90
       18
102
RTVSPost2010Prop41ColorRGB
 90
        0
102
RTVSPost2010PropOp41
 70
     1
102
RTVSPost2010Prop42
 90
       50
102
RTVSPost2010PropOp42
 70
     1
102
RTVSPost2010Prop43
 90
        3
102
RTVSPost2010PropOp43
 70
     1
102
RTVSPost2010Prop44ColorIndex
 90
        5
102
RTVSPost2010Prop44ColorRGB
 90
      255
102
RTVSPost2010PropOp44
 70
     1
102
RTVSPost2010Prop45
280
     0
102
RTVSPost2010PropOp45
 70
     1
102
RTVSPost2010Prop46
 90
       50
102
RTVSPost2010PropOp46
 70
     1
102
RTVSPost2010Prop47
 90
       50
102
RTVSPost2010PropOp47
 70
     1
102
RTVSPost2010Prop48
 90
       50
102
RTVSPost2010PropOp48
 70
     1
102
RTVSPost2010Prop49
280
     0
102
RTVSPost2010PropOp49
 70
     1
102
RTVSPost2010Prop50
 90
       50
102
RTVSPost2010PropOp50
 70
     1
102
RTVSPost2010Prop51ColorIndex
 90
      256
102
RTVSPost2010Prop51ColorRGB
 90
-16777216
102
RTVSPost2010PropOp51
 70
     0
102
RTVSPost2010Prop52
140
1.0
102
RTVSPost2010PropOp52
 70
     0
102
RTVSPost2010Prop53
 90
        2
102
RTVSPost2010PropOp53
 70
     1
102
RTVSPost2010Prop54
  1
strokes_ogs.tif
102
RTVSPost2010PropOp54
 70
     1
102
RTVSPost2010Prop55
280
     0
102
RTVSPost2010PropOp55
 70
     1
102
RTVSPost2010Prop56
140
1.0
102
RTVSPost2010PropOp56
 70
     1
102
RTVSPost2010Prop57
140
1.0
102
RTVSPost2010PropOp57
 70
     1
102
RTVSPropertyOp0
 70
     1
102
RTVSPropertyOp1
 70
     1
102
RTVSPropertyOp2
 70
     1
102
RTVSPropertyOp3
 70
     1
102
RTVSPropertyOp4
 70
     1
102
RTVSPropertyOp5
 70
     1
102
RTVSPropertyOp6
 70
     1
102
RTVSPropertyOp7
 70
     1
102
RTVSPropertyOp8
 70
     1
102
RTVSPropertyOp9
 70
     1
102
RTVSPropertyOp10
 70
     1
102
RTVSPropertyOp11
 70
     1
102
RTVSPropertyOp12
 70
     1
102
RTVSPropertyOp13
 70
     1
102
RTVSPropertyOp14
 70
     1
102
RTVSPropertyOp15
 70
     1
102
RTVSPropertyOp16
 70
     1
102
RTVSPropertyOp17
 70
     1
102
RTVSPropertyOp18
 70
     1
102
RTVSPropertyOp19
 70
     1
102
RTVSPropertyOp20
 70
     1
102
RTVSPropertyOp21
 70
     1
102
RTVSPropertyOp22
 70
     1
102
RTVSPropertyOp23
 70
     1
102
RTVSPropertyOp24
 70
     1
102
RTVSPropertyOp25
 70
     1
102
RTVSPropertyOp26
 70
     1
102
RTVSPropertyOp27
 70
     1
102
RTVSPropertyOp28
 70
     1
102
RTVSPropertyOp29
 70
     1
102
RTVSPropertyOp30
 70
     1
102
RTVSPropertyOp31
 70
     1
102
RTVSPropertyOp32
 70
     1
102
RTVSPropertyOp33
 70
     1
102
RTVSPropertyOp34
 70
     1
102
RTVSPropertyOp35
 70
     1
102
RTVSPropertyOp36
 70
     1
102
RTVSPropertyOp37
 70
     1
102
RTVSPropertyOp38
 70
     1
102
RTVSPropertyOp39
 70
     1
102
RTVSPropertyOp40
 70
     1
102
RTVSPropertyOp41
 70
     1
102
RTVSPropertyOp42
 70
     1
102
RTVSPropertyOp43
 70
     1
102
RTVSPropertyOp44
 70
     1
102
RTVSPropertyOp45
 70
     1
102
RTVSPropertyOp46
 70
     1
102
RTVSPropertyOp47
 70
     1
102
RTVSPropertyOp48
 70
     1
102
RTVSPropertyOp49
 70
     1
102
RTVSPropertyOp50
 70
     1
102
RTVSPropertyOp51
 70
     0
102
RTVSPropertyOp52
 70
     0
102
RTVSPropertyOp53
 70
     1
102
RTVSPropertyOp54
 70
     1
102
RTVSPropertyOp55
 70
     1
102
RTVSPropertyOp56
 70
     1
102
RTVSPropertyOp57
 70
     1
102
RTVSPropertyOp58
 70
     1
102
RTVSPropertyOp59
 70
     1
102
RTVSPropertyOp60
 70
     1
102
RTVSPropertyOp61
 70
     1
102
RTVSPropertyOp62
 70
     1
  0
XRECORD
  5
53DB
102
{ACAD_REACTORS
330
53DA
102
}
330
53DA
100
AcDbXrecord
280
     1
102
RTVSPost2010Prop28
280
     0
102
RTVSPost2010PropOp28
 70
     1
102
RTVSPost2010Prop29
280
     1
102
RTVSPost2010PropOp29
 70
     1
102
RTVSPost2010Prop30
280
     1
102
RTVSPost2010PropOp30
 70
     1
102
RTVSPost2010Prop31
280
     0
102
RTVSPost2010PropOp31
 70
     1
102
RTVSPost2010Prop32
280
     0
102
RTVSPost2010PropOp32
 70
     1
102
RTVSPost2010Prop33
280
     0
102
RTVSPost2010PropOp33
 70
     1
102
RTVSPost2010Prop34
280
     0
102
RTVSPost2010PropOp34
 70
     1
102
RTVSPost2010Prop35
280
     0
102
RTVSPost2010PropOp35
 70
     1
102
RTVSPost2010Prop36
280
     0
102
RTVSPost2010PropOp36
 70
     1
102
RTVSPost2010Prop37
 90
       50
102
RTVSPost2010PropOp37
 70
     1
102
RTVSPost2010Prop38
140
0.0
102
RTVSPost2010PropOp38
 70
     1
102
RTVSPost2010Prop39
140
1.0
102
RTVSPost2010PropOp39
 70
     1
102
RTVSPost2010Prop40
 90
        0
102
RTVSPost2010PropOp40
 70
     1
102
RTVSPost2010Prop41ColorIndex
 90
       18
102
RTVSPost2010Prop41ColorRGB
 90
        0
102
RTVSPost2010PropOp41
 70
     1
102
RTVSPost2010Prop42
 90
       50
102
RTVSPost2010PropOp42
 70
     1
102
RTVSPost2010Prop43
 90
        3
102
RTVSPost2010PropOp43
 70
     1
102
RTVSPost2010Prop44ColorIndex
 90
        5
102
RTVSPost2010Prop44ColorRGB
 90
      255
102
RTVSPost2010PropOp44
 70
     1
102
RTVSPost2010Prop45
280
     0
102
RTVSPost2010PropOp45
 70
     1
102
RTVSPost2010Prop46
 90
       50
102
RTVSPost2010PropOp46
 70
     1
102
RTVSPost2010Prop47
 90
       50
102
RTVSPost2010PropOp47
 70
     1
102
RTVSPost2010Prop48
 90
       50
102
RTVSPost2010PropOp48
 70
     1
102
RTVSPost2010Prop49
280
     0
102
RTVSPost2010PropOp49
 70
     1
102
RTVSPost2010Prop50
 90
       50
102
RTVSPost2010PropOp50
 70
     1
102
RTVSPost2010Prop51ColorIndex
 90
      256
102
RTVSPost2010Prop51ColorRGB
 90
-16777216
102
RTVSPost2010PropOp51
 70
     0
102
RTVSPost2010Prop52
140
1.0
102
RTVSPost2010PropOp52
 70
     0
102
RTVSPost2010Prop53
 90
        2
102
RTVSPost2010PropOp53
 70
     1
102
RTVSPost2010Prop54
  1
strokes_ogs.tif
102
RTVSPost2010PropOp54
 70
     1
102
RTVSPost2010Prop55
280
     0
102
RTVSPost2010PropOp55
 70
     1
102
RTVSPost2010Prop56
140
1.0
102
RTVSPost2010PropOp56
 70
     1
102
RTVSPost2010Prop57
140
1.0
102
RTVSPost2010PropOp57
 70
     1
102
RTVSPropertyOp0
 70
     1
102
RTVSPropertyOp1
 70
     1
102
RTVSPropertyOp2
 70
     1
102
RTVSPropertyOp3
 70
     1
102
RTVSPropertyOp4
 70
     1
102
RTVSPropertyOp5
 70
     1
102
RTVSPropertyOp6
 70
     1
102
RTVSPropertyOp7
 70
     1
102
RTVSPropertyOp8
 70
     1
102
RTVSPropertyOp9
 70
     1
102
RTVSPropertyOp10
 70
     1
102
RTVSPropertyOp11
 70
     1
102
RTVSPropertyOp12
 70
     1
102
RTVSPropertyOp13
 70
     1
102
RTVSPropertyOp14
 70
     1
102
RTVSPropertyOp15
 70
     1
102
RTVSPropertyOp16
 70
     1
102
RTVSPropertyOp17
 70
     1
102
RTVSPropertyOp18
 70
     1
102
RTVSPropertyOp19
 70
     1
102
RTVSPropertyOp20
 70
     1
102
RTVSPropertyOp21
 70
     1
102
RTVSPropertyOp22
 70
     1
102
RTVSPropertyOp23
 70
     1
102
RTVSPropertyOp24
 70
     1
102
RTVSPropertyOp25
 70
     1
102
RTVSPropertyOp26
 70
     1
102
RTVSPropertyOp27
 70
     1
102
RTVSPropertyOp28
 70
     1
102
RTVSPropertyOp29
 70
     1
102
RTVSPropertyOp30
 70
     1
102
RTVSPropertyOp31
 70
     1
102
RTVSPropertyOp32
 70
     1
102
RTVSPropertyOp33
 70
     1
102
RTVSPropertyOp34
 70
     1
102
RTVSPropertyOp35
 70
     1
102
RTVSPropertyOp36
 70
     1
102
RTVSPropertyOp37
 70
     1
102
RTVSPropertyOp38
 70
     1
102
RTVSPropertyOp39
 70
     1
102
RTVSPropertyOp40
 70
     1
102
RTVSPropertyOp41
 70
     1
102
RTVSPropertyOp42
 70
     1
102
RTVSPropertyOp43
 70
     1
102
RTVSPropertyOp44
 70
     1
102
RTVSPropertyOp45
 70
     1
102
RTVSPropertyOp46
 70
     1
102
RTVSPropertyOp47
 70
     1
102
RTVSPropertyOp48
 70
     1
102
RTVSPropertyOp49
 70
     1
102
RTVSPropertyOp50
 70
     1
102
RTVSPropertyOp51
 70
     0
102
RTVSPropertyOp52
 70
     0
102
RTVSPropertyOp53
 70
     1
102
RTVSPropertyOp54
 70
     1
102
RTVSPropertyOp55
 70
     1
102
RTVSPropertyOp56
 70
     1
102
RTVSPropertyOp57
 70
     1
102
RTVSPropertyOp58
 70
     1
102
RTVSPropertyOp59
 70
     1
102
RTVSPropertyOp60
 70
     1
102
RTVSPropertyOp61
 70
     1
102
RTVSPropertyOp62
 70
     1
  0
XRECORD
  5
53DD
102
{ACAD_REACTORS
330
53DC
102
}
330
53DC
100
AcDbXrecord
280
     1
102
RTVSPost2010Prop28
280
     0
102
RTVSPost2010PropOp28
 70
     1
102
RTVSPost2010Prop29
280
     1
102
RTVSPost2010PropOp29
 70
     1
102
RTVSPost2010Prop30
280
     1
102
RTVSPost2010PropOp30
 70
     1
102
RTVSPost2010Prop31
280
     0
102
RTVSPost2010PropOp31
 70
     1
102
RTVSPost2010Prop32
280
     0
102
RTVSPost2010PropOp32
 70
     1
102
RTVSPost2010Prop33
280
     0
102
RTVSPost2010PropOp33
 70
     1
102
RTVSPost2010Prop34
280
     0
102
RTVSPost2010PropOp34
 70
     1
102
RTVSPost2010Prop35
280
     0
102
RTVSPost2010PropOp35
 70
     1
102
RTVSPost2010Prop36
280
     0
102
RTVSPost2010PropOp36
 70
     1
102
RTVSPost2010Prop37
 90
       50
102
RTVSPost2010PropOp37
 70
     1
102
RTVSPost2010Prop38
140
0.0
102
RTVSPost2010PropOp38
 70
     1
102
RTVSPost2010Prop39
140
1.0
102
RTVSPost2010PropOp39
 70
     1
102
RTVSPost2010Prop40
 90
        0
102
RTVSPost2010PropOp40
 70
     1
102
RTVSPost2010Prop41ColorIndex
 90
       18
102
RTVSPost2010Prop41ColorRGB
 90
        0
102
RTVSPost2010PropOp41
 70
     1
102
RTVSPost2010Prop42
 90
       50
102
RTVSPost2010PropOp42
 70
     1
102
RTVSPost2010Prop43
 90
        3
102
RTVSPost2010PropOp43
 70
     1
102
RTVSPost2010Prop44ColorIndex
 90
        5
102
RTVSPost2010Prop44ColorRGB
 90
      255
102
RTVSPost2010PropOp44
 70
     1
102
RTVSPost2010Prop45
280
     0
102
RTVSPost2010PropOp45
 70
     1
102
RTVSPost2010Prop46
 90
       50
102
RTVSPost2010PropOp46
 70
     1
102
RTVSPost2010Prop47
 90
       50
102
RTVSPost2010PropOp47
 70
     1
102
RTVSPost2010Prop48
 90
       50
102
RTVSPost2010PropOp48
 70
     1
102
RTVSPost2010Prop49
280
     0
102
RTVSPost2010PropOp49
 70
     1
102
RTVSPost2010Prop50
 90
       50
102
RTVSPost2010PropOp50
 70
     1
102
RTVSPost2010Prop51ColorIndex
 90
      256
102
RTVSPost2010Prop51ColorRGB
 90
-16777216
102
RTVSPost2010PropOp51
 70
     0
102
RTVSPost2010Prop52
140
1.0
102
RTVSPost2010PropOp52
 70
     0
102
RTVSPost2010Prop53
 90
        2
102
RTVSPost2010PropOp53
 70
     1
102
RTVSPost2010Prop54
  1
strokes_ogs.tif
102
RTVSPost2010PropOp54
 70
     1
102
RTVSPost2010Prop55
280
     0
102
RTVSPost2010PropOp55
 70
     1
102
RTVSPost2010Prop56
140
1.0
102
RTVSPost2010PropOp56
 70
     1
102
RTVSPost2010Prop57
140
1.0
102
RTVSPost2010PropOp57
 70
     1
102
RTVSPropertyOp0
 70
     1
102
RTVSPropertyOp1
 70
     1
102
RTVSPropertyOp2
 70
     1
102
RTVSPropertyOp3
 70
     1
102
RTVSPropertyOp4
 70
     1
102
RTVSPropertyOp5
 70
     1
102
RTVSPropertyOp6
 70
     1
102
RTVSPropertyOp7
 70
     1
102
RTVSPropertyOp8
 70
     1
102
RTVSPropertyOp9
 70
     1
102
RTVSPropertyOp10
 70
     1
102
RTVSPropertyOp11
 70
     1
102
RTVSPropertyOp12
 70
     1
102
RTVSPropertyOp13
 70
     1
102
RTVSPropertyOp14
 70
     1
102
RTVSPropertyOp15
 70
     1
102
RTVSPropertyOp16
 70
     1
102
RTVSPropertyOp17
 70
     1
102
RTVSPropertyOp18
 70
     1
102
RTVSPropertyOp19
 70
     1
102
RTVSPropertyOp20
 70
     1
102
RTVSPropertyOp21
 70
     1
102
RTVSPropertyOp22
 70
     1
102
RTVSPropertyOp23
 70
     1
102
RTVSPropertyOp24
 70
     1
102
RTVSPropertyOp25
 70
     1
102
RTVSPropertyOp26
 70
     1
102
RTVSPropertyOp27
 70
     1
102
RTVSPropertyOp28
 70
     1
102
RTVSPropertyOp29
 70
     1
102
RTVSPropertyOp30
 70
     1
102
RTVSPropertyOp31
 70
     1
102
RTVSPropertyOp32
 70
     1
102
RTVSPropertyOp33
 70
     1
102
RTVSPropertyOp34
 70
     1
102
RTVSPropertyOp35
 70
     1
102
RTVSPropertyOp36
 70
     1
102
RTVSPropertyOp37
 70
     1
102
RTVSPropertyOp38
 70
     1
102
RTVSPropertyOp39
 70
     1
102
RTVSPropertyOp40
 70
     1
102
RTVSPropertyOp41
 70
     1
102
RTVSPropertyOp42
 70
     1
102
RTVSPropertyOp43
 70
     1
102
RTVSPropertyOp44
 70
     1
102
RTVSPropertyOp45
 70
     1
102
RTVSPropertyOp46
 70
     1
102
RTVSPropertyOp47
 70
     1
102
RTVSPropertyOp48
 70
     1
102
RTVSPropertyOp49
 70
     1
102
RTVSPropertyOp50
 70
     1
102
RTVSPropertyOp51
 70
     0
102
RTVSPropertyOp52
 70
     0
102
RTVSPropertyOp53
 70
     1
102
RTVSPropertyOp54
 70
     1
102
RTVSPropertyOp55
 70
     1
102
RTVSPropertyOp56
 70
     1
102
RTVSPropertyOp57
 70
     1
102
RTVSPropertyOp58
 70
     1
102
RTVSPropertyOp59
 70
     1
102
RTVSPropertyOp60
 70
     1
102
RTVSPropertyOp61
 70
     1
102
RTVSPropertyOp62
 70
     1
  0
XRECORD
  5
53CB
102
{ACAD_REACTORS
330
53CA
102
}
330
53CA
100
AcDbXrecord
280
     1
102
RTVSPost2010Prop28
280
     0
102
RTVSPost2010PropOp28
 70
     1
102
RTVSPost2010Prop29
280
     1
102
RTVSPost2010PropOp29
 70
     1
102
RTVSPost2010Prop30
280
     1
102
RTVSPost2010PropOp30
 70
     1
102
RTVSPost2010Prop31
280
     0
102
RTVSPost2010PropOp31
 70
     1
102
RTVSPost2010Prop32
280
     0
102
RTVSPost2010PropOp32
 70
     1
102
RTVSPost2010Prop33
280
     0
102
RTVSPost2010PropOp33
 70
     1
102
RTVSPost2010Prop34
280
     0
102
RTVSPost2010PropOp34
 70
     1
102
RTVSPost2010Prop35
280
     0
102
RTVSPost2010PropOp35
 70
     1
102
RTVSPost2010Prop36
280
     0
102
RTVSPost2010PropOp36
 70
     1
102
RTVSPost2010Prop37
 90
       50
102
RTVSPost2010PropOp37
 70
     1
102
RTVSPost2010Prop38
140
0.0
102
RTVSPost2010PropOp38
 70
     1
102
RTVSPost2010Prop39
140
1.0
102
RTVSPost2010PropOp39
 70
     1
102
RTVSPost2010Prop40
 90
        0
102
RTVSPost2010PropOp40
 70
     1
102
RTVSPost2010Prop41ColorIndex
 90
       18
102
RTVSPost2010Prop41ColorRGB
 90
        0
102
RTVSPost2010PropOp41
 70
     1
102
RTVSPost2010Prop42
 90
       50
102
RTVSPost2010PropOp42
 70
     1
102
RTVSPost2010Prop43
 90
        3
102
RTVSPost2010PropOp43
 70
     1
102
RTVSPost2010Prop44ColorIndex
 90
        5
102
RTVSPost2010Prop44ColorRGB
 90
      255
102
RTVSPost2010PropOp44
 70
     1
102
RTVSPost2010Prop45
280
     0
102
RTVSPost2010PropOp45
 70
     1
102
RTVSPost2010Prop46
 90
       50
102
RTVSPost2010PropOp46
 70
     1
102
RTVSPost2010Prop47
 90
       50
102
RTVSPost2010PropOp47
 70
     1
102
RTVSPost2010Prop48
 90
       50
102
RTVSPost2010PropOp48
 70
     1
102
RTVSPost2010Prop49
280
     0
102
RTVSPost2010PropOp49
 70
     1
102
RTVSPost2010Prop50
 90
       50
102
RTVSPost2010PropOp50
 70
     1
102
RTVSPost2010Prop51ColorIndex
 90
      256
102
RTVSPost2010Prop51ColorRGB
 90
-16777216
102
RTVSPost2010PropOp51
 70
     0
102
RTVSPost2010Prop52
140
1.0
102
RTVSPost2010PropOp52
 70
     0
102
RTVSPost2010Prop53
 90
        2
102
RTVSPost2010PropOp53
 70
     1
102
RTVSPost2010Prop54
  1
strokes_ogs.tif
102
RTVSPost2010PropOp54
 70
     1
102
RTVSPost2010Prop55
280
     0
102
RTVSPost2010PropOp55
 70
     1
102
RTVSPost2010Prop56
140
1.0
102
RTVSPost2010PropOp56
 70
     1
102
RTVSPost2010Prop57
140
1.0
102
RTVSPost2010PropOp57
 70
     1
102
RTVSPropertyOp0
 70
     1
102
RTVSPropertyOp1
 70
     1
102
RTVSPropertyOp2
 70
     1
102
RTVSPropertyOp3
 70
     1
102
RTVSPropertyOp4
 70
     1
102
RTVSPropertyOp5
 70
     1
102
RTVSPropertyOp6
 70
     1
102
RTVSPropertyOp7
 70
     1
102
RTVSPropertyOp8
 70
     1
102
RTVSPropertyOp9
 70
     1
102
RTVSPropertyOp10
 70
     1
102
RTVSPropertyOp11
 70
     1
102
RTVSPropertyOp12
 70
     1
102
RTVSPropertyOp13
 70
     1
102
RTVSPropertyOp14
 70
     1
102
RTVSPropertyOp15
 70
     1
102
RTVSPropertyOp16
 70
     1
102
RTVSPropertyOp17
 70
     1
102
RTVSPropertyOp18
 70
     1
102
RTVSPropertyOp19
 70
     1
102
RTVSPropertyOp20
 70
     1
102
RTVSPropertyOp21
 70
     1
102
RTVSPropertyOp22
 70
     1
102
RTVSPropertyOp23
 70
     1
102
RTVSPropertyOp24
 70
     1
102
RTVSPropertyOp25
 70
     1
102
RTVSPropertyOp26
 70
     1
102
RTVSPropertyOp27
 70
     1
102
RTVSPropertyOp28
 70
     1
102
RTVSPropertyOp29
 70
     1
102
RTVSPropertyOp30
 70
     1
102
RTVSPropertyOp31
 70
     1
102
RTVSPropertyOp32
 70
     1
102
RTVSPropertyOp33
 70
     1
102
RTVSPropertyOp34
 70
     1
102
RTVSPropertyOp35
 70
     1
102
RTVSPropertyOp36
 70
     1
102
RTVSPropertyOp37
 70
     1
102
RTVSPropertyOp38
 70
     1
102
RTVSPropertyOp39
 70
     1
102
RTVSPropertyOp40
 70
     1
102
RTVSPropertyOp41
 70
     1
102
RTVSPropertyOp42
 70
     1
102
RTVSPropertyOp43
 70
     1
102
RTVSPropertyOp44
 70
     1
102
RTVSPropertyOp45
 70
     1
102
RTVSPropertyOp46
 70
     1
102
RTVSPropertyOp47
 70
     1
102
RTVSPropertyOp48
 70
     1
102
RTVSPropertyOp49
 70
     1
102
RTVSPropertyOp50
 70
     1
102
RTVSPropertyOp51
 70
     0
102
RTVSPropertyOp52
 70
     0
102
RTVSPropertyOp53
 70
     1
102
RTVSPropertyOp54
 70
     1
102
RTVSPropertyOp55
 70
     1
102
RTVSPropertyOp56
 70
     1
102
RTVSPropertyOp57
 70
     1
102
RTVSPropertyOp58
 70
     1
102
RTVSPropertyOp59
 70
     1
102
RTVSPropertyOp60
 70
     1
102
RTVSPropertyOp61
 70
     1
102
RTVSPropertyOp62
 70
     1
  0
XRECORD
  5
53BF
102
{ACAD_REACTORS
330
53BE
102
}
330
53BE
100
AcDbXrecord
280
     1
102
RTVSPost2010Prop28
280
     0
102
RTVSPost2010PropOp28
 70
     1
102
RTVSPost2010Prop29
280
     1
102
RTVSPost2010PropOp29
 70
     1
102
RTVSPost2010Prop30
280
     1
102
RTVSPost2010PropOp30
 70
     1
102
RTVSPost2010Prop31
280
     0
102
RTVSPost2010PropOp31
 70
     1
102
RTVSPost2010Prop32
280
     0
102
RTVSPost2010PropOp32
 70
     1
102
RTVSPost2010Prop33
280
     0
102
RTVSPost2010PropOp33
 70
     1
102
RTVSPost2010Prop34
280
     0
102
RTVSPost2010PropOp34
 70
     1
102
RTVSPost2010Prop35
280
     0
102
RTVSPost2010PropOp35
 70
     1
102
RTVSPost2010Prop36
280
     0
102
RTVSPost2010PropOp36
 70
     1
102
RTVSPost2010Prop37
 90
       50
102
RTVSPost2010PropOp37
 70
     1
102
RTVSPost2010Prop38
140
0.0
102
RTVSPost2010PropOp38
 70
     1
102
RTVSPost2010Prop39
140
1.0
102
RTVSPost2010PropOp39
 70
     1
102
RTVSPost2010Prop40
 90
        0
102
RTVSPost2010PropOp40
 70
     1
102
RTVSPost2010Prop41ColorIndex
 90
       18
102
RTVSPost2010Prop41ColorRGB
 90
        0
102
RTVSPost2010PropOp41
 70
     1
102
RTVSPost2010Prop42
 90
       50
102
RTVSPost2010PropOp42
 70
     1
102
RTVSPost2010Prop43
 90
        3
102
RTVSPost2010PropOp43
 70
     1
102
RTVSPost2010Prop44ColorIndex
 90
        5
102
RTVSPost2010Prop44ColorRGB
 90
      255
102
RTVSPost2010PropOp44
 70
     1
102
RTVSPost2010Prop45
280
     0
102
RTVSPost2010PropOp45
 70
     1
102
RTVSPost2010Prop46
 90
       50
102
RTVSPost2010PropOp46
 70
     1
102
RTVSPost2010Prop47
 90
       50
102
RTVSPost2010PropOp47
 70
     1
102
RTVSPost2010Prop48
 90
       50
102
RTVSPost2010PropOp48
 70
     1
102
RTVSPost2010Prop49
280
     0
102
RTVSPost2010PropOp49
 70
     1
102
RTVSPost2010Prop50
 90
       50
102
RTVSPost2010PropOp50
 70
     1
102
RTVSPost2010Prop51ColorIndex
 90
      256
102
RTVSPost2010Prop51ColorRGB
 90
-16777216
102
RTVSPost2010PropOp51
 70
     0
102
RTVSPost2010Prop52
140
1.0
102
RTVSPost2010PropOp52
 70
     0
102
RTVSPost2010Prop53
 90
        2
102
RTVSPost2010PropOp53
 70
     1
102
RTVSPost2010Prop54
  1
strokes_ogs.tif
102
RTVSPost2010PropOp54
 70
     1
102
RTVSPost2010Prop55
280
     0
102
RTVSPost2010PropOp55
 70
     1
102
RTVSPost2010Prop56
140
1.0
102
RTVSPost2010PropOp56
 70
     1
102
RTVSPost2010Prop57
140
1.0
102
RTVSPost2010PropOp57
 70
     1
102
RTVSPropertyOp0
 70
     1
102
RTVSPropertyOp1
 70
     1
102
RTVSPropertyOp2
 70
     1
102
RTVSPropertyOp3
 70
     1
102
RTVSPropertyOp4
 70
     1
102
RTVSPropertyOp5
 70
     1
102
RTVSPropertyOp6
 70
     1
102
RTVSPropertyOp7
 70
     1
102
RTVSPropertyOp8
 70
     1
102
RTVSPropertyOp9
 70
     1
102
RTVSPropertyOp10
 70
     1
102
RTVSPropertyOp11
 70
     1
102
RTVSPropertyOp12
 70
     1
102
RTVSPropertyOp13
 70
     1
102
RTVSPropertyOp14
 70
     1
102
RTVSPropertyOp15
 70
     1
102
RTVSPropertyOp16
 70
     1
102
RTVSPropertyOp17
 70
     1
102
RTVSPropertyOp18
 70
     1
102
RTVSPropertyOp19
 70
     1
102
RTVSPropertyOp20
 70
     1
102
RTVSPropertyOp21
 70
     1
102
RTVSPropertyOp22
 70
     1
102
RTVSPropertyOp23
 70
     1
102
RTVSPropertyOp24
 70
     1
102
RTVSPropertyOp25
 70
     1
102
RTVSPropertyOp26
 70
     1
102
RTVSPropertyOp27
 70
     1
102
RTVSPropertyOp28
 70
     1
102
RTVSPropertyOp29
 70
     1
102
RTVSPropertyOp30
 70
     1
102
RTVSPropertyOp31
 70
     1
102
RTVSPropertyOp32
 70
     1
102
RTVSPropertyOp33
 70
     1
102
RTVSPropertyOp34
 70
     1
102
RTVSPropertyOp35
 70
     1
102
RTVSPropertyOp36
 70
     1
102
RTVSPropertyOp37
 70
     1
102
RTVSPropertyOp38
 70
     1
102
RTVSPropertyOp39
 70
     1
102
RTVSPropertyOp40
 70
     1
102
RTVSPropertyOp41
 70
     1
102
RTVSPropertyOp42
 70
     1
102
RTVSPropertyOp43
 70
     1
102
RTVSPropertyOp44
 70
     1
102
RTVSPropertyOp45
 70
     1
102
RTVSPropertyOp46
 70
     1
102
RTVSPropertyOp47
 70
     1
102
RTVSPropertyOp48
 70
     1
102
RTVSPropertyOp49
 70
     1
102
RTVSPropertyOp50
 70
     1
102
RTVSPropertyOp51
 70
     0
102
RTVSPropertyOp52
 70
     0
102
RTVSPropertyOp53
 70
     1
102
RTVSPropertyOp54
 70
     1
102
RTVSPropertyOp55
 70
     1
102
RTVSPropertyOp56
 70
     1
102
RTVSPropertyOp57
 70
     1
102
RTVSPropertyOp58
 70
     1
102
RTVSPropertyOp59
 70
     1
102
RTVSPropertyOp60
 70
     1
102
RTVSPropertyOp61
 70
     1
102
RTVSPropertyOp62
 70
     1
  0
XRECORD
  5
53DF
102
{ACAD_REACTORS
330
53DE
102
}
330
53DE
100
AcDbXrecord
280
     1
102
RTVSPost2010Prop28
280
     0
102
RTVSPost2010PropOp28
 70
     1
102
RTVSPost2010Prop29
280
     1
102
RTVSPost2010PropOp29
 70
     1
102
RTVSPost2010Prop30
280
     1
102
RTVSPost2010PropOp30
 70
     1
102
RTVSPost2010Prop31
280
     0
102
RTVSPost2010PropOp31
 70
     1
102
RTVSPost2010Prop32
280
     0
102
RTVSPost2010PropOp32
 70
     1
102
RTVSPost2010Prop33
280
     0
102
RTVSPost2010PropOp33
 70
     1
102
RTVSPost2010Prop34
280
     0
102
RTVSPost2010PropOp34
 70
     1
102
RTVSPost2010Prop35
280
     0
102
RTVSPost2010PropOp35
 70
     1
102
RTVSPost2010Prop36
280
     0
102
RTVSPost2010PropOp36
 70
     1
102
RTVSPost2010Prop37
 90
       50
102
RTVSPost2010PropOp37
 70
     1
102
RTVSPost2010Prop38
140
0.0
102
RTVSPost2010PropOp38
 70
     1
102
RTVSPost2010Prop39
140
1.0
102
RTVSPost2010PropOp39
 70
     1
102
RTVSPost2010Prop40
 90
        0
102
RTVSPost2010PropOp40
 70
     1
102
RTVSPost2010Prop41ColorIndex
 90
       18
102
RTVSPost2010Prop41ColorRGB
 90
        0
102
RTVSPost2010PropOp41
 70
     1
102
RTVSPost2010Prop42
 90
       50
102
RTVSPost2010PropOp42
 70
     1
102
RTVSPost2010Prop43
 90
        3
102
RTVSPost2010PropOp43
 70
     1
102
RTVSPost2010Prop44ColorIndex
 90
        5
102
RTVSPost2010Prop44ColorRGB
 90
      255
102
RTVSPost2010PropOp44
 70
     1
102
RTVSPost2010Prop45
280
     0
102
RTVSPost2010PropOp45
 70
     1
102
RTVSPost2010Prop46
 90
       50
102
RTVSPost2010PropOp46
 70
     1
102
RTVSPost2010Prop47
 90
       50
102
RTVSPost2010PropOp47
 70
     1
102
RTVSPost2010Prop48
 90
       50
102
RTVSPost2010PropOp48
 70
     1
102
RTVSPost2010Prop49
280
     0
102
RTVSPost2010PropOp49
 70
     1
102
RTVSPost2010Prop50
 90
       50
102
RTVSPost2010PropOp50
 70
     1
102
RTVSPost2010Prop51ColorIndex
 90
      256
102
RTVSPost2010Prop51ColorRGB
 90
-16777216
102
RTVSPost2010PropOp51
 70
     0
102
RTVSPost2010Prop52
140
1.0
102
RTVSPost2010PropOp52
 70
     0
102
RTVSPost2010Prop53
 90
        2
102
RTVSPost2010PropOp53
 70
     1
102
RTVSPost2010Prop54
  1
strokes_ogs.tif
102
RTVSPost2010PropOp54
 70
     1
102
RTVSPost2010Prop55
280
     0
102
RTVSPost2010PropOp55
 70
     1
102
RTVSPost2010Prop56
140
1.0
102
RTVSPost2010PropOp56
 70
     1
102
RTVSPost2010Prop57
140
1.0
102
RTVSPost2010PropOp57
 70
     1
102
RTVSPropertyOp0
 70
     1
102
RTVSPropertyOp1
 70
     1
102
RTVSPropertyOp2
 70
     1
102
RTVSPropertyOp3
 70
     1
102
RTVSPropertyOp4
 70
     1
102
RTVSPropertyOp5
 70
     1
102
RTVSPropertyOp6
 70
     1
102
RTVSPropertyOp7
 70
     1
102
RTVSPropertyOp8
 70
     1
102
RTVSPropertyOp9
 70
     1
102
RTVSPropertyOp10
 70
     1
102
RTVSPropertyOp11
 70
     1
102
RTVSPropertyOp12
 70
     1
102
RTVSPropertyOp13
 70
     1
102
RTVSPropertyOp14
 70
     1
102
RTVSPropertyOp15
 70
     1
102
RTVSPropertyOp16
 70
     1
102
RTVSPropertyOp17
 70
     1
102
RTVSPropertyOp18
 70
     1
102
RTVSPropertyOp19
 70
     1
102
RTVSPropertyOp20
 70
     1
102
RTVSPropertyOp21
 70
     1
102
RTVSPropertyOp22
 70
     1
102
RTVSPropertyOp23
 70
     1
102
RTVSPropertyOp24
 70
     1
102
RTVSPropertyOp25
 70
     1
102
RTVSPropertyOp26
 70
     1
102
RTVSPropertyOp27
 70
     1
102
RTVSPropertyOp28
 70
     1
102
RTVSPropertyOp29
 70
     1
102
RTVSPropertyOp30
 70
     1
102
RTVSPropertyOp31
 70
     1
102
RTVSPropertyOp32
 70
     1
102
RTVSPropertyOp33
 70
     1
102
RTVSPropertyOp34
 70
     1
102
RTVSPropertyOp35
 70
     1
102
RTVSPropertyOp36
 70
     1
102
RTVSPropertyOp37
 70
     1
102
RTVSPropertyOp38
 70
     1
102
RTVSPropertyOp39
 70
     1
102
RTVSPropertyOp40
 70
     1
102
RTVSPropertyOp41
 70
     1
102
RTVSPropertyOp42
 70
     1
102
RTVSPropertyOp43
 70
     1
102
RTVSPropertyOp44
 70
     1
102
RTVSPropertyOp45
 70
     1
102
RTVSPropertyOp46
 70
     1
102
RTVSPropertyOp47
 70
     1
102
RTVSPropertyOp48
 70
     1
102
RTVSPropertyOp49
 70
     1
102
RTVSPropertyOp50
 70
     1
102
RTVSPropertyOp51
 70
     0
102
RTVSPropertyOp52
 70
     0
102
RTVSPropertyOp53
 70
     1
102
RTVSPropertyOp54
 70
     1
102
RTVSPropertyOp55
 70
     1
102
RTVSPropertyOp56
 70
     1
102
RTVSPropertyOp57
 70
     1
102
RTVSPropertyOp58
 70
     1
102
RTVSPropertyOp59
 70
     1
102
RTVSPropertyOp60
 70
     1
102
RTVSPropertyOp61
 70
     1
102
RTVSPropertyOp62
 70
     1
  0
ENDSEC
  0
EOF
